Song name
# A B C D E F G H I J K L M N O P Q R S T U V W X Y Z

Muse - Supermassive Black Hole tab

 This is the tab version of Supermassive Black Hole (ver7) for Guitar Pro, which I 
was the most accurate one, and I tabbed it out so that people without Guitar Pro could use 
one. Tabbed by Marshmallowpig.

b  = bend
h  = hammer-on
p  = pull-off
__ = hold note
/  = slide up

INTRO (0:00)
e--------------------|--------------------|
B--------------------|--------------------|
G--------------------|--------------------|
D---5---------5------|---5---------5------|
A--------------------|--------------------|
E-0---0---0-0---0---0|-0---0---0-0---0---0|

e--------------------|-----------------------------|
B--------------------|-----------------------------|
G--------------------|-----------------------------|
D---5---------5------|---5---------5---7b8b7-5h7p5-|
A--------------------|-----------------------------|
E-0---0---0-0---0---0|-0---0---0-0---0-------------|

MAIN RIFF (0:16)
e-----------------------------------|
B-----------------------------------|
G-----------------------------7-7-5-|
D-----------------------------7-7-5-|
A-----10-----3-3-3-----10-----5-5-3-|
E-0-0----0-0-------0-0----0-0-------|

e-----------------------------------|
B-----------------------------------|
G-----------------------------7-7-9-|
D-----------------------------7-7-9-|
A-----10-----3-3-3-----10-----5-5-7-|
E-0-0----0-0-------0-0----0-0-------|

e-----------------------------------|
B-----------------------------------|
G-----------------------------7-7-5-|
D-----------------------------7-7-5-|
A-----10-----3-3-3-----10-----5-5-3-|
E-0-0----0-0-------0-0----0-0-------|

e---------------------------------------------|
B---------------------------------------------|
G---------------------------------------------|
D-----------------------------7b8b7-5h7p5-----|
A-----10-----3-3-3-----10---------------------|
E-0-0----0-0-------0-0----0-------------------|

(0:32)
e-----------------------------------|
B-----------------------------------|
G-----------------------------------|
D-----------------------------------|
A-----10-----3-3-3-----10-----5-5-3-|
E-0-0----0-0-------0-0----0-0-------|

e-----------------------------------|
B-----------------------------------|
G-----------------------------------|
D-----------------------------------|
A-----10-----3-3-3-----10-----5-5-7-|
E-0-0----0-0-------0-0----0-0-------|

e-----------------------------------|
B-----------------------------------|
G-----------------------------------|
D-----------------------------------|
A-----10-----3-3-3-----10-----5-5-3-|
E-0-0----0-0-------0-0----0-0-------|

e---------------------------------------------|
B---------------------------------------------|
G---------------------------------------------|
D-----------------------------7b8b7-5h7p5-----|
A-----10-----3-3-3-----10---------------------|
E-0-0----0-0-------0-0----0-------------------|

PRECHORUS (0:48)
e---------------------------------------------------------------|
B---------------------------------------------------------------|
G---------------------------------------------------------------|
D-----7-----7-7-------5--------------9-------------2-2----------|
A---------------------------------------------------------------|
E-5-5---5-5-----4-3-3---3-3-5-5-6-7-7--7-7-6-5-3-0-----2-2-3-3-4|

e-----------------------------------------------------------------|
B-----------------------------------------------------------------|
G-----------------------------------------------------------------|
D-----7-----7-7-------5--------------9-------------2-2--4---5---6-|
A-------------------------------------------------------4---5---6-|
E-5-5---5-5-----4-3-3---3-3-5-5-6-7-7--7-7-6-5-3-0------2---3---4-|

CHORUS (1:04)
e---------------------------------------------------------------|
B---------------------------------------------------------------|
G---------------------------------------------------------------|
D-----7-----7-7-------5--------------9-------------2-2----------|
A---------------------------------------------------------------|
E-5-5---5-5-----4-3-3---3-3-5-5-6-7-7--7-7-6-5-3-0-----2-2-3-3-4|

e-------------------------------------------------------------------|
B-------------------------------------------------------------------|
G-------------------------------------------------------------------|
D-----7-----7-7-------5--------------9-----------------------5-3----|
A-------------------------------------------------------------------|
E-5-5---5-5-----4-3-3---3-3-5-5-6-7-7--7-7-6-5-3---7-7-6-5-3--------|

(1:20)
e--------------------|--------------------|
B--------------------|--------------------|
G--------------------|--------------------|
D--------------------|--------------------|
A--------------------|--------------------|
E-0------------------|-0------------------|

MAIN RIFF (1:28)
e-----------------------------------|
B-----------------------------------|
G-----------------------------7-7-5-|
D-----------------------------7-7-5-|
A-----10-----3-3-3-----10-----5-5-3-|
E-0-0----0-0-------0-0----0-0-------|

e-----------------------------------|
B-----------------------------------|
G-----------------------------------|
D-----------------------------------|
A-----10-----3-3-3-----10-----------|
E-0-0----0-0-------0-0----0---------|

PRECHORUS (1:36)
e---------------------------------------------------------------|
B---------------------------------------------------------------|
G---------------------------------------------------------------|
D-----7-----7-7-------5--------------9-------------2-2----------|
A---------------------------------------------------------------|
E-5-5---5-5-----4-3-3---3-3-5-5-6-7-7--7-7-6-5-3-0-----2-2-3-3-4|

e-----------------------------------------------------------------|
B-----------------------------------------------------------------|
G-----------------------------------------------------------------|
D-----7-----7-7-------5--------------9-------------2-2--4---5---6-|
A-------------------------------------------------------4---5---6-|
E-5-5---5-5-----4-3-3---3-3-5-5-6-7-7--7-7-6-5-3-0------2---3---4-|

CHORUS (1:52)
e---------------------------------------------------------------|
B---------------------------------------------------------------|
G---------------------------------------------------------------|
D-----7-----7-7-------5--------------9-------------2-2----------|
A---------------------------------------------------------------|
E-5-5---5-5-----4-3-3---3-3-5-5-6-7-7--7-7-6-5-3-0-----2-2-3-3-4|

e-------------------------------------------------------------------|
B-------------------------------------------------------------------|
G-------------------------------------------------------------------|
D-----7-----7-7-------5--------------9-----------------------5-3----|
A-------------------------------------------------------------------|
E-5-5---5-5-----4-3-3---3-3-5-5-6-7-7--7-7-6-5-3---7-7-6-5-3--------|

(2:08)
e--------------------|--------------------|
B--------------------|--------------------|
G--------------------|--------------------|
D---5---------5------|---5---------5------|
A--------------------|--------------------|
E-0---0---0-0---0---0|-0---0---0-0---0---0|

e--------------------|--------------------|
B--------------------|--------------------|
G--------------------|--------------------|
D---5---------5------|---5---------5------|
A--------------------|--------------------|
E-0---0---0-0---0---0|-0---0---0-0---0----|

SOLO (2:24)
e--------------------------------------------|
B--------------------------------------------|
G----------14__14h15p14h15p14h15p14h15_______|<-(not sure how many hammer-ons
D-9____/14-----------------------------------|   and pull-offs go here)
A--------------------------------------------|
E--------------------------------------------|

e-20______b21______b20------21_________b23---|
B--------------------------------------------|
G--------------------------------------------|
D--------------------------------------------|
A--------------------------------------------|
E--------------------------------------------|

PRECHORUS (2:40)
e---------------------------------------------------------------|
B---------------------------------------------------------------|
G---------------------------------------------------------------|
D-----7-----7-7-------5--------------9-------------2-2----------|
A---------------------------------------------------------------|
E-5-5---5-5-----4-3-3---3-3-5-5-6-7-7--7-7-6-5-3-0-----2-2-3-3-4|

e-----------------------------------------------------------------|
B-----------------------------------------------------------------|
G-----------------------------------------------------------------|
D-----7-----7-7-------5--------------9-------------2-2--4---5---6-|
A-------------------------------------------------------4---5---6-|
E-5-5---5-5-----4-3-3---3-3-5-5-6-7-7--7-7-6-5-3-0------2---3---4-|

CHORUS (2:56)
e---------------------------------------------------------------|
B---------------------------------------------------------------|
G---------------------------------------------------------------|
D-----7-----7-7-------5--------------9-------------2-2----------|
A---------------------------------------------------------------|
E-5-5---5-5-----4-3-3---3-3-5-5-6-7-7--7-7-6-5-3-0-----2-2-3-3-4|

e-------------------------------------------------------------------|
B-------------------------------------------------------------------|
G-------------------------------------------------------------------|
D-----7-----7-7-------5--------------9-----------------------5-3----|
A-------------------------------------------------------------------|
E-5-5---5-5-----4-3-3---3-3-5-5-6-7-7--7-7-6-5-3---7-7-6-5-3--------|

OUTRO (3:12)
e--------------------|--------------------|
B--------------------|--------------------|
G--------------------|--------------------|
D---5---------5------|---5---------5------|
A--------------------|--------------------|
E-0---0---0-0---0---0|-0---0---0-0---0---0|

e--------------------|--------------------|
B--------------------|--------------------|
G--------------------|--------------------|
D---5---------5------|---5---------5------|
A--------------------|--------------------|
E-0---0---0-0---0---0|-0---0---0-0---0----|

END (3:29)
Tap to rate this tab
# A B C D E F G H I J K L M N O P Q R S T U V W X Y Z