Song name
# A B C D E F G H I J K L M N O P Q R S T U V W X Y Z

Muse - Madness tab

Muse's single from their upcoming album 'The 2nd Law'

Whole song can be played clean with some slight compression!

Turn on the fuzz for the solo!


Verse 1 [0:00 - 0.53]: No Guitar but the chords are A# to D# (quite fun to jam along to)

Chorus 1 [0.53 - 1.15]: Gm -> F -> D#

Verse 2 [1.15 - 2:09]: 

Guitar comes in at [1:26]

e||---------------------------------|---------------------------------|
B||---------------------------------|---------------------------------|
G||---3-3-3-3----3-3-3-3-3-3----3-3-|---3-3-3-3----3-3-3-3-3-3----3-3-|
D||---------------------------------|---------------------------------|
A||---------------------------------|---------------------------------|
E||---------------------------------|---------------------------------| x 2

e||---------------------------------|
B||---------------------------------|
G||---0-0-0-0----0-0-0-0-0-0----0-0-|
D||---------------------------------|
A||---------------------------------|
E||---------------------------------| x 2

e||---------------------------------|---------------------------------|
B||---------------------------------|---------------------------------|
G||---3-3-3-3----3-3-3-3-3-3----3-3-|---3-3-3-3----3-3-3-3-3-3----3-3-|
D||---------------------------------|---------------------------------|
A||---------------------------------|---------------------------------|
E||---------------------------------|---------------------------------| x 1



[1:47] 'When I look back . . .'

Palm Muted

e||---------------------------------|---------------------------------|
B||---------------------------------|---------------------------------|
G||---7-7-7-7----7-7-7-7-7-7----7-7-|---7-7-7-7----7-7-7-7-7-7----7-7-|
D||---8-8-8-8----8-8-8-8-8-8----8-8-|---8-8-8-8----8-8-8-8-8-8----8-8-|
A||---------------------------------|---------------------------------|
E||---------------------------------|---------------------------------| x 2

e||---------------------------------|
B||---------------------------------|
G||---3-3-3-3----3-3-3-3-3-3----3-3-|
D||---1-1-1-1----1-1-1-1-1-1----1-1-|
A||---------------------------------|
E||---------------------------------| x 2

e||---------------------------------|---------------------------------|
B||---------------------------------|---------------------------------|
G||---7-7-7-7----7-7-7-7-7-7----7-7-|---7-7-7-7----7-7-7-7-7-7----7-7-|
D||---8-8-8-8----8-8-8-8-8-8----8-8-|---8-8-8-8----8-8-8-8-8-8----8-8-|
A||---------------------------------|---------------------------------|
E||---------------------------------|---------------------------------| x 1



Chorus 2 [2.09 - 2:30]

Palm Muted

e||----------------------------------------------|
B||----------------------------------------------|
G||---12-12-12-12-----12-12-12-12-12-12----12-12-|
D||---12-12-12-12-----12-12-12-12-12-12----12-12-|
A||----------------------------------------------|
E||----------------------------------------------| x 1

e||----------------------------------------------|
B||----------------------------------------------|
G||---14-14-14-14-----14-14-14-14-14-14----14-14-|
D||---15-15-15-15-----15-15-15-15-15-15----15-15-|
A||----------------------------------------------|
E||----------------------------------------------| x 1

e||----------------------------------------------|
B||----------------------------------------------|
G||---13-13-13-13-----13-13-13-13-13-13----13-13-|
D||---13-13-13-13-----13-13-13-13-13-13----13-13-|
A||----------------------------------------------|
E||----------------------------------------------| x 2

Interlude [2:30 - 2:41] same as verse



Solo [2:41 - 3:02] (fuzz effect)

e||-----------------------|
B||-----------------------|
G||---------17^(19)-------|
D||-----------------------|
A||-----------------------|
E||-----------------------|

e||-------------------------------------------------------------------|
B||-------------------------------------------------------------------|
G||------------15--17^(19)-17--15--17--17^(19)p15--17p15--------------|
D||--------15---------------------------------------------------------|
A||----17-------------------------------------------------------------|
E||-----------------------------------------------------------6(dive)-|


e||-----------------------18-------18-------------------|
B||-----------------------------------------21-------21-|
G||--19-17----------------------------------------------|
D||--------20-------17h18----17h18----17h18----17h18----|
A||-----------------------------------------------------|
E||-----------------------------------------------------|

e||--------------------------------------------------------------------|
B||--------20-------20-------18-------18-------------------------------|
G||--------------------------------------------19-------19-------18\---|
D||--17h18----17h18----17h18----17h18----17h18----17h18----17h18-------|
A||--------------------------------------------------------------------|
E||--------------------------------------------------------------------|

e||-----------------------|
B||-----------------------|
G||-------20--------------|
D||-----------------------|
A||----18----18-----------|
E||--------------10\\\\---|



Chorus 3 [3:02 - 3:44]

Repeat Chorus 2 x 4



Ending [3:44 - 4:27]

same chords as chorus, can beef it up with full chords of Gm -> F -> D# :

e||--10----8----6----------|
B||--11----10---8----------|
G||--12----10---8----------|
D||--12----10---8----------|
A||------------------------|
E||------------------------|

     Gm    F    D#
  

Outro [4.27 - 4:41]



Thank you! Feedback is much appreciated!
Tap to rate this tab
# A B C D E F G H I J K L M N O P Q R S T U V W X Y Z