Song name
# A B C D E F G H I J K L M N O P Q R S T U V W X Y Z

Music Man - 76 Trombones tab

-------------------------------------------------------------------------------
			     76 Trombones- Music Man
-------------------------------------------------------------------------------
Tabbed by: Kevin Sawicki
Email: urbanfool@msn.com

e|---------------------------------------------------------------------------|
B|---------------------------------------------------------------------------|
G|-------0---------------------0-2--------------------------------0---------2|
D|-0-2-4---0---------2-0---2-4----4-0--------0-2-4---0---------2----4-2-0-4--|
A|----------2-0------------------------3-0--------------2-----3--------------|
E|--------------3-2------------------------3---------------3-----------------|

e|---------------------------------------------------------------------------|
B|---------------------------------------------------------------------------|
G|-2-0-----------------------------------------------------------------------|
D|------4-0------------------------------------------------------------------|
A|---------------------------------------------------------------------------|
E|---------------------------------------------------------------------------|

I am the music man in our musical at school, so I have this song stuck in my head all 
time. That is why i desided to do this tab.
===============================================================================
Tap to rate this tab
# A B C D E F G H I J K L M N O P Q R S T U V W X Y Z