Song name
# A B C D E F G H I J K L M N O P Q R S T U V W X Y Z

Musiq Soulchild - Just Friends tab

	
----------------------------------------------------------------------------
                       Musiq Soulchild - Just Friends
----------------------------------------------------------------------------
If you want to hear. Go to my account and you can listen it.
it is not difficult, so I hope you like it!



E |----x--------x--------x--------x--------x--------x--------x--------x----| 
B |----x--------x--------x--------x--------x--------x--------x--------x----|
G |----x--------x--------x--------x--------x--------x--------x--------x----| 2x
D |----x--------x--------x--------x--------x--------x--------x--------x----|
A |----x--------x--------x--------x--------x--------x--------x--------x----|
E |----x--------x--------x--------x--------x--------x--------x--------x----|


E |------------------------------------------------------------------------|
B |----x-------------------9--9--7-----5----x---5--5---x--4--4--x--4-----x-|
G |-9--x---9--8--7---7-7---9--9--7-----6----x---6--6---x--5--5--x--5-----x-| 17x
D |-9--x---9--8--7---7-7---7--7--5-----6----x---6--6---x--5--5--x--5-----x-|
A |-x--x---x--x--x---x-x--------------------x----------x--0--0--x--0-----x-|
E |-9--x---9--8--7---7-7---------------5----x---5--5---x--------x--------x-|


E |------------------------------------------------------------------------|
B |------------------------------------5------------------4----------------|
G |-9------------------7---------------6------------------5----------------| 1x
D |-9------------------7---------------6------------------5----------------|
A |-x------------------x----------------------------------0----------------|
E |-9------------------7---------------5-----------------------------------|



Something like that..                                                                         
Tap to rate this tab
 
# A B C D E F G H I J K L M N O P Q R S T U V W X Y Z