Song name
# A B C D E F G H I J K L M N O P Q R S T U V W X Y Z

Mutiilation - Transylvania tab

Band:  Mutiilation

Album: Vampires Of Black Imperial Blood

Song:  Transylvania


.  - palm mute           /  - slide up to
\  - slide down to       ~  - vibrato
h  - hammer on           b  - Bend
p  - pull off            Suffixes for bend
t  - tap                 f  - full bend    h - half bend
ph - pinched harmonic    q  - quarter bend t - tap bend
*  - see comment         ^  - Hold bend    r release bend
x  - Stuccatto           ~  - vibrato bend
,  - slight palm mute    () - ghost note, sustained note
"  - tremolo note        <> - Trill

Tuning E A D G B E

Riff 1
|--------------------------------------------------------------------|
|----------------------------------------------------4---------------|
|--4---7---6---7----4----7---6---7---4---7---6---7-------7--6--7-----|
|--4---4---4---4----4----4---4---4---5---4---4---4---5---4--4--4-----|
|--------------------------------------------------------------------|
|--------------------------------------------------------------------|

Riff 1b
|---------------------------------------------------------------------------|
|---------------------------------------------------------------------------|
|---6---9---8--9 --6----9--8--9----=11--10---8--10---11--12--11--9----------|
|---6---6---6--6---6----6--6--6-----8---8----8---8----9--9---9---9----------|
|---------------------------------------------------------------------------|
|---------------------------------------------------------------------------|

Riff 2
|-----------------------------------------------------------|
|---7---8----7----5---7---5---------------------------------|
|---5---5----5----6---6---6---------------------------------|
|-----------------------------------------------------------|  
|-----------------------------------------------------------| 
|-----------------------------------------------------------|

Riff 2b
|-----------------------------------------------------------|
|--7---8---7----8---5--7---5---4--6---4--3--5---3-----------|
|--5---5---5----6---6--6---6---5--5---5--4--4---4-----------|
|-----------------------------------------------------------| 
|-----------------------------------------------------------|
|-----------------------------------------------------------|

Riff 4
|---------------------------------------------------|
|---------------------------------------------------| 
|---------------------------------------------------| 
|---2----1----------------------1-------------------|  
|---------------4---3----4------------4-------------|
|---------------------------------------------------|

Tap to rate this tab
# A B C D E F G H I J K L M N O P Q R S T U V W X Y Z