Song name
# A B C D E F G H I J K L M N O P Q R S T U V W X Y Z

Muzika Iz Serije - Grlom U Jagode tab

-------------------------------------------------------------------------------
			     Grlom u jagode - Muzika iz serije
-------------------------------------------------------------------------------
Tabbed by: Martin Petkovski
Email: chill.bt@live.com
**The sweetest melody ever! I think this is pretty close to the original** 

Tuning: Standard

e|--5-----------7--5--7--5--|--4----------5--4--5--4--|--3-----------5--3--5--3|
B|--------5-----------------|--------2----------------|--------2---------------|
G|-----6-----6--------------|-----2----2--------------|-----2-----2------------|
D|--------------------------|-------------------------|------------------------|
A|--0-----------------------|--0----------------------|--0---------------------|
E|--------------------------|-------------------------|------------------------|

e|--2-----------------------|--1----------3--1--3--1--|--0-----5-----9-----10-9|
B|--------3-----3-----3-----|--------3----------------|-----2-----5-----7------|
G|-----2-----2-----2-----2--|-----2----2--------------|------------------------|
D|--0-----------------------|--0----------------------|------------------------|
A|--------------------------|-------------------------|--0-----------9---------|
E|--------------------------|-------------------------|------------------------|

e|--------------7--5--4--7--|--5-----------5----------|
B|--------------------------|-----5-----5-------------|
G|--7-----------------------|--------6----------------|
D|--------7-----------------|-------------------------|
A|-----9-----9--------------|--0----------------------|
E|--7-----------0-----------|-------------------------|


http://en.wikipedia.org/wiki/Grlom_u_jagode
Tap to rate this tab
 
# A B C D E F G H I J K L M N O P Q R S T U V W X Y Z