Song name
# A B C D E F G H I J K L M N O P Q R S T U V W X Y Z

My Chemical Romance - Interlude tab

Interlude
by My Chemical Romance (from the album Three Cheers for Sweet Revenge)

Standard tuning, it's pretty easy to play once you have the chords shaped nicely. I let 
pinky or ring fingers do the moving, keeping the shape with the others and barring it. 
also makes this easy, as I think it's played on an acoustic. Ahh! And let all the notes ring.

_____________________________________________________________________________
INTRO[0:00]
_____________________________________________________________________________


e|---------2-----|---------2-----|---------2-----|---------2-----|
B|-----2-------2-|-----2-------2-|-----2-------2-|-----2-------2-|
G|---------------|---------------|---------------|---------------|
D|---4---4---4---|---4---4---4---|---4---4---4---|---4---4---4---|
A|---------------|---------------|-5-------------|-5-------------|
E|-2-------------|-2-------------|---------------|---------------|

e|---------2-----|---------2-----|---------2-----|---------2-----|
B|-----2-------2-|-----2-------2-|-----2-------2-|-----2-------2-|
G|---------------|---------------|---------------|---------------|
D|---4---4---4---|---4---4---4---|---4---4---4---|---4---4---4---|
A|-4-------------|-4-------------|---------------|---------------|
E|---------------|---------------|-5-------------|-4-------------|


*A playing tip here (or, how I do it.. so it's not really much of a tip, anyhoo) is to 
the second fret with your first finger, keeping your ring finger on the fourth fret of 
D string, and moving your pinky around. The chord you keep constant should look like this:

e|-2-|
B|-2-|
G|-2-| and your pinky hits those 5th and 4th frets
D|-4-| on the A and E strings ;)
A|-2-|
E|-2-|

This is similar for the first verse too except at the 7th bar there's a slight alteration.

_____________________________________________________________________________
VERSE[0:13]
_____________________________________________________________________________


e|---------2-----|---------2-----|---------2-----|---------2-----|
B|-----2-------2-|-----2-------2-|-----2-------2-|-----2-------2-|
G|---------------|---------------|---------------|---------------|
D|---4---4---4---|---4---4---4---|---4---4---4---|---4---4---4---|
A|---------------|---------------|-5-------------|-5-------------|
E|-2-------------|-2-------------|---------------|---------------|

Since___________________________we talked to her____________________

e|---------2-----|---------2-----|---------------|---------2-----|
B|-----2-------2-|-----2-------2-|-----0h2-2---2-|-----2-------2-|
G|---------------|---------------|-----------4---|---------------|
D|---4---4---4---|---4---4---4---|---4-----------|---4---4---4---|
A|---------------|-4-------------|---------------|---------------|
E|4h5------------|---------------|-5-------------|-4-------------|

__________________________________now_______________________________

*That 4h5 sounds like it may have been accidental from the guitarist but it makes it 
accurate to include it.

_____________________________________________________________________________
VERSE[0:25]
_____________________________________________________________________________


e|---------------|---------------|---------------|---------------|
B|---------2-----|---------2-----|---------0-----|---------0-----|
G|-----2-----2---|-----2-----2---|-----1-------1-|-----1-------1-|
D|---2---2-----2-|---2---2-----2-|---2---2---2---|---2---2---2---|
A|-4-------------|-4-------------|---------------|---------------|
E|---------------|---------------|-0-------------|-0-------------|
come______________________________angels___________________________

e|---------------|---------------|---------------|---------------|
B|---------2-----|---------2-----|---------2-----|---------2-----|
G|-----2-------2-|-----2-------2-|-----4-----4---|-----4-----4---|
D|---4---4---4---|---4---4---4---|---3---3-----3-|---3---3-----3-|
A|---------------|---------------|-4-------------|-4-------------|
E|-2-------------|-2-------------|---------------|---------------|
of________________________________the lord_________________________

e|---------------|---------------|---------------|---------------|
B|---------2-----|---------2-----|3\2------0-----|---------0-----|
G|-----2-----2---|-----2-----2---|-----1-------1-|-----1-------1-|
D|---2---2-----2-|---2---2-----2-|---2---2---2---|---2---2---2---|
A|-0-------------|-0-------------|---------------|---------------|
E|---------------|---------------|-0-------------|-0-------------|
Come______________________________angels___________________________

e|---------------|-------------------|-----------------|-------------------|
B|---------2-----|-2--------2--------|---------2-------|-------2-----2-----|
G|-----2-----2---|---2---2-----2---2-|-----4-----4---4-|-----4-----4-----4-|
D|---4---4-----4-|-----4---4-----4---|---4---4-----4---|---4-----4---------|
A|---------------|-------------------|-4---------------|-4-----------------|
E|-2-------------2-2-2---------------|-----------------|-------------------|
_______________________________________of the lord_______________

e|-----0---2-----|
B|----2----------|
G|---4-----------|
D|--3------------|
A|-4-------------|
E|---------------|


And that's the end :) The last bar is just a raked chord. The last bit got a bit 
when I was tabbing it.. but I hope it's right. It sounds accurate :).


_____________________________________________________________________________

Lyrics:

Since we talked to her now
Come angels of the lord
Come angels of the lord

_____________________________________________________________________________

Key:
/ 	- Slide up
\ 	- Slide down
b 	- Bend
r 	- Return
x 	- Mute
PM 	- Palm mute
~ 	- Let ring/vibrato
h	- Hammer-on
p	- Pull-off
<>	- Harmonic
Tap to rate this tab
 
# A B C D E F G H I J K L M N O P Q R S T U V W X Y Z