Song name
# A B C D E F G H I J K L M N O P Q R S T U V W X Y Z

My Chemical Romance - House Of Wolves tab

House of Wolves
Think this is nearly correct, it's made of my own work and some from other tabs on
the site where i think they are correct so cedit to the other tabs aswell.

Grt I : Frank Iero
Grt II: Ray Toro

Intro
Both Grt I and II
e:|----------------|----------------|--------------------|----------------|
B:|----------------|----------------|--------------------|----|
G:|<<<<>>>>-------------|--------------------|----------------|
D:|----------------|----------------|--<<<<<<<>>>>>>>---------|
A:|-------<<<<<<<<<<<>>>>>>>>>>>>>-----------|----------------|
E:|----------------|----------------|--------------------|----------------|

Cont.
e:|----------------|----------------|--------------------|----------------|
B:|----------------|----------------|--------------------|----------------|
G:|--9-9-7-7-55-4--|--9-9-7-7-55-4--|--9-9-11-11-1212-9--|--9-9-7-7-55-4--|
D:|--9-9-7-7-55-4--|--9-9-7-7-55-4--|--9-9-11-11-1212-9--|--9-9-7-7-55-4--|
A:|--7-7-5-5-33-2--|--7-7-5-5-33-2--|--7-7- 9- 9-1010-7--|--7-7-5-5-33-2--|
E:|----------------|----------------|--------------------|----------------|

Verse 1
Grt I
e:|----------------|----------------|----------------|----------------|/
B:|----------------|------------8~--|----------------|------------8~--|/
G:|-9~-------------|--------------9~|----------------|--------------9~|/
D:|-9~-------------|----------------|9~--------------|----------------|/
A:|-7~-------------|----------------|--7~------------|----------------|/
E:|----------------|----------------|----------------|----------------|/
“I know a...”                  “...say...”                       “...pray...”
\e:|----------------|----------------|----------------|----------------|
\B:|----------------|------------8~--|----------------|----------------|
\G:|----------------|--------------9~|----------------|----------------|
\D:|9~--------------|----------------|9~--------------|----------------|
\A:|--7~------------|----------------|--7~------------|----------------|
\E:|----------------|----------------|----------------|----------------|
                              “...praise...”                     “...days...”
Grt II
e:|----------------|----------------|----------------|----------------|/
B:|----------------|----------------|----------------|----------------|/
G:|----------------|----------------|----------------|----------------|/
D:|-2~-------------|----------------|-2~-------------|----------------|/
A:|-2~-------------|----------------|-2~-------------|----------------|/
E:|-0~-------------|----------------|-0~-------------|----------------|/

\e:|-7---7---7---7--|-7---7---7---7--|-7---7---7---7--|-7---7---7---7--|
\B:|-8---8---8---8--|-8---8---8---8--|-8---8---8---8--|-8---8---8---8--|
\G:|-9---9---9---9--|-9---9---9---9--|-9---9---9---9--|-9---9---9---9--|
\D:|----------------|----------------|----------------|----------------|
\A:|----------------|----------------|----------------|----------------|
\E:|----------------|----------------|----------------|----------------|
“...pray...”	                                                 “...days”

Pre Chorus
Both Grt I and II
e:|----------------|----------------|----------------|
B:|----------------|----------------|----------------|
G:|444444--4/5~----|-------5/7~-----|-------7/8~-----|
D:|444444--4/5~----|-------5/7~-----|-------7/8~-----|
A:|222222--2/3~----|-------3/5~-----|-------5/6~-----|
E:|----------------|----------------|----------------|
           “...Well...hell...”         “...house...”

Chorus
Grt I
e:|----------------|----------------|----------------|----------------|x2
B:|----------------|----------------|----------------|----------------|
G:|-9-9-9-9-9-9-7-7|-5-5-5-5-5-5-5-5|----------------|-4-4-4-4-5-5-7-7|
D:|-9-9-9-9-9-9-7-7|-5-5-5-5-5-5-5-5|-5-5-5-5-5-5-5-5|-4-4-4-4-5-5-7-7|
A:|-7-7-7-7-7-7-5-5|-3-3-3-3-3-3-3-3|-5-5-5-5-5-5-5-5|-2-2-2-2-3-3-5-5|
E:|----------------|----------------|-3-3-3-3-3-3-3-3|----------------|
“She says...”                                                “...grave...”           
“Tell me...”                                                 “...grave” 

Grt II
e|-------------------|-------------------|-------------------|-------------------x2
B|-------------------|-------------------|-------------------|-------------------|
G|-9--11/12--11/9--7-|-9--11/12--11/9--7-|-9--11/12--11/9--7-|-8--11/12--11/9--7-|
D|-x—- x/ x—- x/x----|-x—- x/ x-- x/x----|-x-- x/ x-- x/x--x-|-x-- x/ x-- x/x--x-|
A|-7-- 9/10—- 9/7--5-|-7--9 /10-- 9/7--5-|-7-- 9/10-- 9/7--5-|-6-- 9/10-- 9/7--5-|
E|-------------------|-------------------|-------------------|-------------------|
“She says...”                                                        “...grave...”  
“Tell me...”                                                            “...grave” 

Post Chorus
Grt I
e:|----------------|----------------|----------------|
B:|----------------|----------------|----|
G:|<<<>>>--------------------|
D:|-------------<<<<>>>-|----------------|
A:|----------------|----------------|----------------|
E:|----------------|----------------|----------------|


Grt II
e:|----------------|----------------|----------------|
B:|----------------|----------------|----------------|
G:|----------------|----------------|----------------|
D:|----------------|----------------|----------------|
A:|----------------|-------------7p5|-5-----------5--|
E:|----------------|----------------|----3p2h3--5----|


Verse 2
Grt I
e:|----------------|----------------|----------------|----------------|/
B:|---8~-----------|------8~--------|---8~-----------|------8~--------|/
G:|-----9~---------|----9~----------|-----9~---------|----9~----------|/
D:|-------9~-------|--9~------------|-------9~-------|--9~------------|/
A:|----------7p5h7-|7~--------------|----------7p5h7-|7~--------------|/
E:|----------------|----------------|----------------|----------------|/
“You Play...”                   “...So get the...”

\e:|-7---7---7---7--|-7---7---7---7--|-7---7---7---7--|-7---7---7---7--|
\B:|-8---8---8---8--|-8---8---8---8--|-8---8---8---8--|-8---8---8---8--|
\G:|-9---9---9---9--|-9---9---9---9--|-9---9---9---9--|-9---9---9---9--|
\D:|----------------|----------------|----------------|----------------|
\A:|----------------|----------------|----------------|----------------|
\E:|----------------|----------------|----------------|----------------|
“...swear...”	                                               “...days...”

Grt II
e:|----------------|----------------|----------------|----------------|/
B:|----------------|----------------|----------------|----------------|/
G:|----------------|----------------|----------------|----------------|/
D:|-2~-------------|----------------|-2~-------------|----------------|/
A:|-2~-------------|----------------|-2~-------------|----------------|/
E:|-0~-------------|----------------|-0~-------------|----------------|/

\e:|-7---7---7---7--|-7---7---7---7--|-7---7---7---7--|-7---7---7---7--|
\B:|-8---8---8---8--|-8---8---8---8--|-8---8---8---8--|-8---8---8---8--|
\G:|-9---9---9---9--|-9---9---9---9--|-9---9---9---9--|-9---9---9---9--|
\D:|----------------|----------------|----------------|----------------|
\A:|----------------|----------------|----------------|----------------|
\E:|----------------|----------------|----------------|----------------|
“...swear...”	                                               “...days...”

Pre Chorus
Both Grt I and II
e:|----------------|----------------|----------------|
B:|----------------|----------------|----------------|
G:|444444--4/5~----|-------5/7~-----|-------7/8~-----|
D:|444444--4/5~----|-------5/7~-----|-------7/8~-----|
A:|222222--2/3~----|-------3/5~-----|-------5/6~-----|
E:|----------------|----------------|----------------|
           “...Well...hell...”         “...house...”

Chorus
Grt I
e:|----------------|----------------|----------------|----------------|x2
B:|----------------|----------------|----------------|----------------|
G:|-9-9-9-9-9-9-7-7|-5-5-5-5-5-5-5-5|----------------|-4-4-4-4-5-5-7-7|
D:|-9-9-9-9-9-9-7-7|-5-5-5-5-5-5-5-5|-5-5-5-5-5-5-5-5|-4-4-4-4-5-5-7-7|
A:|-7-7-7-7-7-7-5-5|-3-3-3-3-3-3-3-3|-5-5-5-5-5-5-5-5|-2-2-2-2-3-3-5-5|
E:|----------------|----------------|-3-3-3-3-3-3-3-3|----------------|
“She says...”                                                “...grave...”
“Tell me...”                                                 “...grave”

Grt II
e|-------------------|-------------------|-------------------|---------------------|x2
B|-------------------|-------------------|-------------------|---------------------|
G|-9--11/12--11/9--7-|-9--11/12--11/9--7-|-9--11/12--11/9--7-|-8--11/12--11/9--7---|
D|-x—- x/ x—- x/x----|-x—- x/ x-- x/x----|-x-- x/ x-- x/x--x-|-x-- x/ x-- x/x--x---|
A|-7-- 9/10—- 9/7--5-|-7--9 /10-- 9/7--5-|-7-- 9/10-- 9/7--5-|-6-- 9/10-- 9/7--5---|
E|-------------------|-------------------|-------------------|---------------------|
“She says...”                                                        “...grave...”
“Tell me...”                                                            “...grave”

Bridge
Grt I
e:|-------------------|-------------------|----------------|----------------|/
B:|-------------------|-------------------|----------------|----------------|/
G:|-------------------|-------------------|----------------|----------------|/
D:|-2--5/7---2--5/7---|2--5/7---2--5/7--2-|----------------|----------------|/
A:|-2--5/7---2--5/7---|2--5/7---2--5/7--2-|----------------|----------------|/
E:|-0--3/5---0--3/5---|0--3/5---0--3/5--0-|----------------|----------------|/
                                          “You better run...”         “...Alone”
\e:|-------------------|-------------------|----------------|----------------|
\B:|-------------------|-------------------|----------------|----------------|
\G:|-------------------|-------------------|----------------|----------------|
\D:|-2--5/7---2--5/7---|2------------------|--------------2-|5/7---2--5/7---2|
\A:|-2--5/7---2--5/7---|2------------------|--------------2-|5/7---2--5/7---2|
\E:|-0--3/5---0--3/5---|0------------------|--------------0-|3/5---0--3/5---0|
                       “You better hide...”           ”...home”

Grt II
e:|-------------------|-------------------|----------------|----------------|/
B:|-------------------|-------------------|----------------|----------------|/
G:|-------------------|-------------------|----------------|----------------|/
D:|-4--7/9---4--7/9---|4--7/9---4--7/9--4-|----------------|----------------|/
A:|-4--7/9---4--7/9---|4--7/9---4--7/9--4-|----------------|----------------|/
E:|-2--5/7---2--5/7---|2--5/7---2--5/7--2-|----------------|----------------|/
                                          “You better run...”         “...Alone”

\e:|-------------------|-------------------|----------------|----------------|
\B:|-------------------|-------------------|----------------|----------------|
\G:|-------------------|-------------------|----------------|----------------|
\D:|-4--7/9---4--7/9---|4------------------|--------------4-|7/9---4--7/9---4|
\A:|-4--7/9---4--7/9---|4------------------|--------------4-|7/9---4--7/9---4|
\E:|-2--5/7---2--5/7---|2------------------|--------------2-|5/7---2--5/7---2|
                       “You better hide...”           ”...home”

cont.
Both Grt I and II
e:|-------------------|--------------------|----------------|-----------------|
B:|-------------------|--------------------|----------------|-----------------|
G:|---------------9---|-----------------4~-|--------5~---2/4|--2/4--2/4--2/4--|
D:|---------------9-7-|-----------------4~-|--------5~---2/4|--2/4--2/4--2/4--|
A:|---------------7-7-|-----------------2~-|--------3~---0/2|--0/2--0/2--0/2--|
E:|-----------------5-|-------------------------------------|-----------------|
“And as the...”  “...you see me...”“...bad...”“...sister...”

Chorus
Grt I
e:|----------------|----------------|----------------|----------------|x2
B:|----------------|----------------|----------------|----------------|
G:|-9-9-9-9-9-9-7-7|-5-5-5-5-5-5-5-5|----------------|-4-4-4-4-5-5-7-7|
D:|-9-9-9-9-9-9-7-7|-5-5-5-5-5-5-5-5|-5-5-5-5-5-5-5-5|-4-4-4-4-5-5-7-7|
A:|-7-7-7-7-7-7-5-5|-3-3-3-3-3-3-3-3|-5-5-5-5-5-5-5-5|-2-2-2-2-3-3-5-5|
E:|----------------|----------------|-3-3-3-3-3-3-3-3|----------------|
“She says...”                                                “...grave...”
“Tell me...”                                                 “...grave”

Grt II
e|-------------------|-------------------|-------------------|---------------------|x2
B|-------------------|-------------------|-------------------|---------------------|
G|-9--11/12--11/9--7-|-9--11/12--11/9--7-|-9--11/12--11/9--7-|-8--11/12--11/9--7---|
D|-x—- x/ x—- x/x----|-x—- x/ x-- x/x----|-x-- x/ x-- x/x--x-|-x-- x/ x-- x/x--x---|
A|-7-- 9/10—- 9/7--5-|-7--9 /10-- 9/7--5-|-7-- 9/10-- 9/7--5-|-6-- 9/10-- 9/7--5---|
E|-------------------|-------------------|-------------------|---------------------|
“She says...”                                                        “...grave...”
“Tell me...”                                                            “...grave”

Solo
Grt I
e:|----------------|----------------|----------------|----------------|x2
B:|----------------|----------------|----------------|----------------|
G:|-9-9-9-9-9-9-7-7|-5-5-5-5-5-5-5-5|----------------|-4-4-4-4-5-5-7-7|
D:|-9-9-9-9-9-9-7-7|-5-5-5-5-5-5-5-5|-5-5-5-5-5-5-5-5|-4-4-4-4-5-5-7-7|
A:|-7-7-7-7-7-7-5-5|-3-3-3-3-3-3-3-3|-5-5-5-5-5-5-5-5|-2-2-2-2-3-3-5-5|
E:|----------------|----------------|-3-3-3-3-3-3-3-3|----------------|
“Tell me I’m a bad man...”


Grt II (total credit to Mathamology)
e:|------------------------------------|-------------------------------------|
B:|-----------------------------15^(17)|---12h15p12--------------------------|
G:|-14^(16)-14^(16)--14^(16)p12--------|------------h14-16p14p12-12-12-12h14-|
D:|------------------------------------|-------------------------------------|
A:|------------------------------------|-------------------------------------|
E:|------------------------------------|-------------------------------------|

e:|------------------------------------|---------------------------------------|
B:|------------------------------------|---------------------------------------|
G:|-12h14-12-12h14p11-11h12-11---------|----------------12h14p12---------------|
D:|----------------------------h14-14h16p14-14~~-12h14----------14p12-14~~-----|
A:|------------------------------------|---------------------------------------|
E:|------------------------------------|---------------------------------------|

e:|------------------------------------|---------------------------------------|
B:|------------------------------------|-----------------------12h13-15^(17)---|
G:|--------------12h14p12-11h12p11-12h14p12----------12h14p12------------------|
D:|-14~-12h14p12-----------------------|-----12h14p12--------------------------|
A:|------------------------------------|---------------------------------------|
E:|------------------------------------|---------------------------------------|

e:|-------------------12-14^(15)-14p12h14-12-14^(15)14^(15)--/14^(15)r14~~-----|
B:|-13-15^(17)15^(17)------------------|---------------------------------------|
G:|------------------------------------|---------------------------------------|
D:|------------------------------------|---------------------------------------|
A:|------------------------------------|---------------------------------------|
E:|------------------------------------|---------------------------------------|
                                                                        “...man”
Outro
Grt I
e:|----------------|----------------|--------------------|----------------|
B:|----------------|----------------|--------------------|----------------|
G:|--9-9-7-7-55-4--|--9-9-7-7-55-4--|--9-9-11-11-1212-9--|--9-9--7--5--4--|
D:|--9-9-7-7-55-4--|--9-9-7-7-55-4--|--9-9-11-11-1212-9--|--9-9--7--5--4--|
A:|--7-7-5-5-33-2--|--7-7-5-5-33-2--|--7-7- 9- 9-1010-7--|--7-7--5--3--2--|
E:|----------------|----------------|--------------------|----------------|

Grt II (total credit to Mathamology)
e:|-12------(12)------|-15-----(15)-----|--19------(19)----|-(19)----------|
B:|-15^(17)~~15^(17)~~|-18^(20)~18^(20)~|-22^(24)~~22^(24)~|-22^(24)~~~----|
G:|-------------------|-----------------|------------------|---------------|
D:|-------------------|-----------------|------------------|---------------|
A:|-------------------|-----------------|------------------|---------------|
E:|-------------------|-----------------|------------------|---------------|

Cont.
Both Grt I and II
e:|---------------|
B:|---------------|
G:|-2~------------|
D:|-2~------------|
A:|-0~------------|
E:|---------------|
Tap to rate this tab
# A B C D E F G H I J K L M N O P Q R S T U V W X Y Z