Guitaretab - guitar tabs
Song name
# A B C D E F G H I J K L M N O P Q R S T U V W X Y Z

My Chemical Romance - I Dont Love You tab

Song: I Don't Love You
Band: My Chemical Romance
Album: The Black Parade

Key:

x:- String Mute
/:- Slide
^(#):- Bend To Fret
r:- Release
~:- Let Ring
h:- Hammer-on
p:- Pull-off

Gtr I: Ray Toro
Gtr II: Frank Iero
Gtr III: Ray Toro (Overdubbed)

NOTE: This is just going based on live performances.

Intro Pt I:

Gtr I

e:|-12----12----12----12----12----12----12----12----|
B:|-13----13----13----13----13----13----13----13----|
G:|----12----12----12----12----12----12----12----12-|
D:|-------------------------------------------------|
A:|-------------------------------------------------|
E:|-------------------------------------------------|

Intro Pt II:

Gtr I

e:|-12----12----12----12----13----13----12----12----|
B:|-13----13----13----13----13----13----13----13----|
G:|----12----12----12----12----12----12----12----12-|
D:|-------------------------------------------------|
A:|-------------------------------------------------|
E:|-------------------------------------------------|

e:|-12----12----12----12----13----13----12----12----|
B:|-13----13----13----13----13----13----13----13----|
G:|----14----14----14----14----14----14----14----14-|
D:|-------------------------------------------------|
A:|-------------------------------------------------|
E:|-------------------------------------------------|

e:|-10----10----10----10----10----10----10----10----|
B:|-13----13----13----13----12----12----13----13----|
G:|----12----12----12----12----12----12----12----12-|
D:|-------------------------------------------------|
A:|-------------------------------------------------|
E:|-------------------------------------------------|

e:|-12----12----12----12----10----10----------------|
B:|-------------------------------------13----12----|
G:|----12----12----12----12----12----12----12----12-|
D:|-------------------------------------------------|
A:|-------------------------------------------------|
E:|-------------------------------------------------|

Gtr II

e:|-----------------------------------------------------------------|
B:|-1-1-1-1-1-1-1-1-1-1-1-1-1-1-1-1-1-1-1-1-1-1-1-1-1-1-1-1-1-1-1-1-|
G:|-0-0-0-0-0-0-0-0-0-0-0-0-0-0-0-0-2-2-2-2-2-2-2-2-2-2-2-2-2-2-2-2-|
D:|-2-2-2-2-2-2-2-2-2-2-2-2-2-2-2-2-2-2-2-2-2-2-2-2-2-2-2-2-2-2-2-2-|
A:|-3-3-3-3-3-3-3-3-3-3-3-3-3-3-3-3-0-0-0-0-0-0-0-0-0-0-0-0-0-0-0-0-|
E:|-----------------------------------------------------------------|

e:|-3-3-3-3-3-3-3-3-3-3-3-3-3-3-3-3-1-1-1-1-1-1-1-1-3-3-3-3-3-3-3-3-|
B:|-3-3-3-3-3-3-3-3-3-3-3-3-3-3-3-3-1-1-1-1-1-1-1-1-3-3-3-3-3-3-3-3-|
G:|-0-0-0-0-0-0-0-0-0-0-0-0-0-0-0-0-2-2-2-2-2-2-2-2-4-4-4-4-4-4-4-4-|
D:|-0-0-0-0-0-0-0-0-0-0-0-0-0-0-0-0-3-3-3-3-3-3-3-3-5-5-5-5-5-5-5-5-|
A:|-2-2-2-2-2-2-2-2-2-2-2-2-2-2-2-2-3-3-3-3-3-3-3-3-5-5-5-5-5-5-5-5-|
E:|-3-3-3-3-3-3-3-3-3-3-3-3-3-3-3-3-1-1-1-1-1-1-1-1-3-3-3-3-3-3-3-3-|

Verse I:

Gtr I

e:|--------------------------------------|
B:|-13~--3-3-3-3-3-3-3-3-3-3-3-3-3-3-3-3-|
G:|------5-5-5-5-5-5-5-5-5-5-5-5-5-5-5-5-|
D:|------5-5-5-5-5-5-5-5-5-5-5-5-5-5-5-5-|
A:|------0-0-0-0-0-0-0-0-0-0-0-0-0-0-0-0-|
E:|--------------------------------------|

e:|---------------------------------|
B:|---------------------------------|
G:|-5-5-5-5-5-5-5-5-4-4-4-4-4-4-4-4-|
D:|-5-5-5-5-5-5-5-5-5-5-5-5-5-5-5-5-|
A:|-3-3-3-3-3-3-3-3-5-5-5-5-5-5-5-5-|
E:|-3-3-3-3-3-3-3-3-3-3-3-3-3-3-3-3-|

e:|---------------------------------|
B:|-5-5-5-5-5-5-5-5-5-5-5-5-5-5-----|
G:|-5-5-5-5-5-5-5-5-5-5-5-5-5-5-xxx-|
D:|-5-5-5-5-5-5-5-5-5-5-5-5-5-5-xxx-|
A:|-3-3-3-3-3-3-3-3-3-3-3-3-3-3-xxx-|
E:|---------------------------------|

Gtr II

e:|----------------------------------------|
B:|----------------------------------------|
G:|----------------------------------------|
D:|-/3~-2--0--2--0------3/5--2~--0-2/3/2~~-|
A:|-----------------3~~--------------------|
E:|----------------------------------------|

e:|----------------------------------------|
B:|----------------------------------------|
G:|------------------------------------xxx-|
D:|-----2/3~-0-----------2h3~-5~~--3-2-xxx-|
A:|-2h3-------------2h3~---------------xxx-|
E:|------------3~~-------------------------|

Pre-Chorus I:

Gtr I

e:|---------------------------------|
B:|-5-5-5-5-5-5-5-5-5-5-5-5-5-5-5-5-|
G:|-5-5-5-5-5-5-5-5-5-5-5-5-5-5-5-5-|
D:|-5-5-5-5-5-5-5-5-5-5-5-5-5-5-5-5-|
A:|-3-3-3-3-3-3-3-3-3-3-3-3-3-3-3-3-|
E:|---------------------------------|

e:|---------------------------------|
B:|-3-3-3-3-3-3-3-3-3-3-3-3-3-3-3-3-|
G:|-5-5-5-5-5-5-5-5-5-5-5-5-5-5-5-5-|
D:|-5-5-5-5-5-5-5-5-5-5-5-5-5-5-5-5-|
A:|-0-0-0-0-0-0-0-0-0-0-0-0-0-0-0-0-|
E:|---------------------------------|

e:|---------------------------------|
B:|---------------------------------|
G:|-5-5-5-5-5-5-5-5-4-4-4-4-4-4-4-4-|
D:|-5-5-5-5-5-5-5-5-5-5-5-5-5-5-5-5-|
A:|-3-3-3-3-3-3-3-3-5-5-5-5-5-5-5-5-|
E:|-3-3-3-3-3-3-3-3-3-3-3-3-3-3-3-3-|

e:|---------------------------------|
B:|-5-5-5-5-5-5-5-5-5-5-5-5-5-5-5-5-|
G:|-5-5-5-5-5-5-5-5-5-5-5-5-5-5-5-5-|
D:|-5-5-5-5-5-5-5-5-5-5-5-5-5-5-5-5-|
A:|-3-3-3-3-3-3-3-3-3-3-3-3-3-3-3-3-|
E:|---------------------------------|

Gtr II

e:|------------------------------------|
B:|------------------------------------|
G:|-10/9-9/7-7/9/7/5--10/9-9/7-7/9/7/5-|
D:|--x-x-x-x-x-x-x-x---x-x-x-x-x-x-x-x-|
A:|--8/7-7/5-5/7/5/3---8/7-7/5-5/7/5/3-|
E:|------------------------------------|

e:|--------------------------------------------|
B:|--------------------------------------------|
G:|-12/10-10/9-7-7/9/7/5--12/10-10/9-7-7/9/7/5-|
D:|--x--x--x-x-x-x-x-x-x---x--x--x-x-x-x-x-x-x-|
A:|-10/-8--8/7-5-5/7/5/3--10/-8--8/7-5-5/7/5/3-|
E:|--------------------------------------------|

e:|------------------------|
B:|------------------------|
G:|-5-5-5-5-5-5/7-7-7-7/---|
D:|-x-x-x-x-x-x-x-x-x-x-5~-|
A:|-3-3-3-3-3-3/5-5-5-5/5~-|
E:|---------------------3~-|

e:|-----------------------------------------------------|
B:|-----------------------------------------------------|
G:|-5/7-7-7-7/9-9-9-9/7-7-7-7/10101010/9-9-7-7/9/7/5-10-|
D:|-x-x-x-x-x-x-x-x-x-x-x-x-x--x-x-x-x-x-x-x-x-x-x-x--x-|
A:|-3/5-5-5-5/7-7-7-7/5-5-5-5/-8-8-8-8/7-7-5-5/7/5/3--8-|
E:|-----------------------------------------------------|

Chorus:

Gtr I

e:|-----------------------------------------------------------------|
B:|-------------------------------------------------6-6-6-6-6-6-6-6-|
G:|-------------------------------------------------7-7-7-7-7-7-7-7-|
D:|-3-3-3-3-3-3-3-3-5-5-5-5-6-6-6-6-7-7-7-7-2-2-2-2-7-7-7-7-7-7-7-7-|
A:|-3-3-3-3-3-3-3-3-5-5-5-5-7-7-7-7-7-7-7-7-2-2-2-2-5-5-5-5-5-5-5-5-|
E:|-1-1-1-1-1-1-1-1-3-3-3-3-4-4-4-4-5-5-5-5-0-0-0-0-----------------|

e:|------------------------------------|
B:|---------------------------------5~-|
G:|---------------------------------5~-|
D:|-3-3-3-3-3-3-3-3-5-5-5-5-5-5-5-5-5~-|
A:|-3-3-3-3-3-3-3-3-5-5-5-5-5-5-5-5-3~-|
E:|-1-1-1-1-1-1-1-1-3-3-3-3-3-3-3-3----|

Gtr II

e:|---------------------------------|
B:|---------------------------------|
G:|-10--10-10/9--7--5/7--9-7-5/7--5-|
D:|--x---x--x-x--x--x-x--x-x-x-x--x-|
A:|--8---8--8/7--5--3/5--7-5-3/5--3-|
E:|---------------------------------|

e:|----------------------------------|
B:|----------------------------------|
G:|-5/7--9-7/5--5/9/7--5/4--4/5/7-5~-|
D:|-x-x--x-x-x--x-x-x--x-x--x-x-x-x--|
A:|-3/5--7-5/3--3/7/5--3/2--2/3/5-3~-|
E:|----------------------------------|

Verse II:

Gtr I

e:|---------------------------------|
B:|-------5-------5-------5-------5-|
G:|---5-------5-------5-------5-----|
D:|-5---5---5---5---5---5---5---5---|
A:|---------------------------------|
E:|---------------------------------|
[ Tab from: http://www.guitaretab.com/m/my-chemical-romance/78042.html ]
e:|---------------------------------|
B:|-------3-------3-------3-------3-|
G:|---5-------5-------5-------5-----|
D:|-5---5---5---5---5---5---5---5---|
A:|---------------------------------|
E:|---------------------------------|


e:|---------------------------------|
B:|-------3-------3-------3-------3-|
G:|---4-------4-------4-------4-----|
D:|-5---5---5---5---5---5---5---5---|
A:|---------------------------------|
E:|---------------------------------|

e:|---------------------------------|
B:|-------5-------5-------5-------5-|
G:|---5-------5-------5-------5-----|
D:|-5---5---5---5---5---5---5---5---|
A:|---------------------------------|
E:|---------------------------------|

Gtr II

e:|---------------------------------------------|
B:|---------------------------------------------|
G:|---5-7-5---5-7-5------5-9-7-5-9-7^(9)r7-5----|
D:|-5-------5-------5--5---------------------7~-|
A:|---------------------------------------------|
E:|---------------------------------------------|

e:|-----------------------------------|
B:|-----------------------------------|
G:|-----------------------------------|
D:|-/5-3-2-----/5-3-2-3-5------2h3-5~-|
A:|--------3~-------------2h3~--------|
E:|-----------------------------------|

Pre-Chorus II:

Gtr I

e:|---------------------------------|
B:|-5-5-5-5-5-5-5-5-5-5-5-5-5-5-5-5-|
G:|-5-5-5-5-5-5-5-5-5-5-5-5-5-5-5-5-|
D:|-5-5-5-5-5-5-5-5-5-5-5-5-5-5-5-5-|
A:|-3-3-3-3-3-3-3-3-3-3-3-3-3-3-3-3-|
E:|---------------------------------|

e:|---------------------------------|
B:|-3-3-3-3-3-3-3-3-3-3-3-3-3-3-3-3-|
G:|-5-5-5-5-5-5-5-5-5-5-5-5-5-5-5-5-|
D:|-5-5-5-5-5-5-5-5-5-5-5-5-5-5-5-5-|
A:|-0-0-0-0-0-0-0-0-0-0-0-0-0-0-0-0-|
E:|---------------------------------|

e:|---------------------------------|
B:|---------------------------------|
G:|-5-5-5-5-5-5-5-5-4-4-4-4-4-4-4-4-|
D:|-5-5-5-5-5-5-5-5-5-5-5-5-5-5-5-5-|
A:|-3-3-3-3-3-3-3-3-5-5-5-5-5-5-5-5-|
E:|-3-3-3-3-3-3-3-3-3-3-3-3-3-3-3-3-|

e:|---------------------------------|
B:|-5-5-5-5-5-5-5-5-5-5-5-5-5-5-5-5-|
G:|-5-5-5-5-5-5-5-5-5-5-5-5-5-5-5-5-|
D:|-5-5-5-5-5-5-5-5-5-5-5-5-5-5-5-5-|
A:|-3-3-3-3-3-3-3-3-3-3-3-3-3-3-3-3-|
E:|---------------------------------|

Gtr II

e:|------------------------------------|
B:|------------------------------------|
G:|-10/9-9/7-7/9/7/5--10/9-9/7-7/9/7/5-|
D:|--x-x-x-x-x-x-x-x---x-x-x-x-x-x-x-x-|
A:|--8/7-7/5-5/7/5/3---8/7-7/5-5/7/5/3-|
E:|------------------------------------|

e:|--------------------------------------------|
B:|--------------------------------------------|
G:|-12/10-10/9-7-7/9/7/5--12/10-10/9-7-7/9/7/5-|
D:|--x--x--x-x-x-x-x-x-x---x--x--x-x-x-x-x-x-x-|
A:|-10/-8--8/7-5-5/7/5/3--10/-8--8/7-5-5/7/5/3-|
E:|--------------------------------------------|

e:|--------------------------------------------------------|
B:|--------------------------------------------------------|
G:|-5-5-5-5/12-12-12~--10101010/9-9-9-9/7-7-7-7/9-9-9-9/5~-|
D:|-x-x-x-x--x--x--x----x-x-x-x-x-x-x-x-x-x-x-x-x-x-x-x-x--|
A:|-3-3-3-3/10-10-10~---8-8-8-8/7-7-7-7/5-5-5-5/7-7-7-7/3~-|
E:|--------------------------------------------------------|

Repeat Chorus

Solo:

Gtr I

e:|---------------------------------------------------------|
B:|-10------10------10------10------10------13------13------|
G:|-12^(14)-12^(14)-12^(14)-12^(14)-12^(14)-16^(17)-16^(17)-|
D:|---------------------------------------------------------|
A:|---------------------------------------------------------|
E:|---------------------------------------------------------|

e:|---------------------------------------------------------------|
B:|-12------12------12------12------12------12--------------------|
G:|-14^(16)-14^(16)-14^(16)-14^(16)-14^(16)-14^(16)-14^(16)r14-12-|
D:|---------------------------------------------------------------|
A:|---------------------------------------------------------------|
E:|---------------------------------------------------------------|

e:|----------------------------------------------------------------|
B:|--8-------8------------9-------9-----12-10------10------10------|
G:|-10^(12)-10^(12)-9h11-11^(13)-11^(13)---12^(14)-12^(14)-12^(14)-|
D:|----------------------------------------------------------------|
A:|----------------------------------------------------------------|
E:|----------------------------------------------------------------|

e:|------------------------------------------15----13----12----12-|
B:|-12h13p10-12h3-15^(17)-15p13h15~-15-13-13----13----13----12----|
G:|---------------------------------------------------------------|
D:|---------------------------------------------------------------|
A:|---------------------------------------------------------------|
E:|---------------------------------------------------------------|

e:|----10----10-----------10--------------------|
B:|-12----12----12~--12-12----12/10-10-10~-8-8~-|
G:|---------------------------------------------|
D:|---------------------------------------------|
A:|---------------------------------------------|
E:|---------------------------------------------|

Gtr II

e:|-----------------------------------------------------------|
B:|-----------------------------------------------------------|
G:|-7-7-7-7-7-7-7-7-----------------5-5-4-4-4-2~--------------|
D:|-7-7-7-7-7-7-7-7-5-5-5-5-5-5-5-5-5-5-5-5-5-2~-3~-2~--------|
A:|-5-5-5-5-5-5-5-5-5-5-5-5-5-5-5-5-3-3-2-2-2-0~-------3~-2h3-|
E:|-----------------3-3-3-3-3-3-3-3---------------------------|

e:|----------------------------------|
B:|----------------------------------|
G:|-7-7-7-7-7---------------------5~-|
D:|-7-7-7-7-7-----5-5-5-5-5-5-5-5-5~-|
A:|-5-5-5-5-5-----5-5-5-5-5-5-5-5-3~-|
E:|-----------0h1-3-3-3-3-3-3-3-3----|

Before Outro:

Gtr II

e:|-----------------------------------------------------|
B:|-----------------------------------------------------|
G:|-----------------------------------------------------|
D:|-----------------------------------------------------|
A:|-/8-7/5~--3/5-7-5-3/5/3~--3/5/7-5/3~-3/7/5-3/2-2/3/5-|
E:|-----------------------------------------------------|

Outro:

Gtr I

e:|---------------------------------------------------------|
B:|---------------------------------------------------------|
G:|-5~--4~--2-2-2-2-----------------------------------------| (x2)
D:|-5~--5~--2-2-2-2-5-5-5-5-3-3-3-3-3-3-3-3-5-5-5-5-5-5-5-5-|
A:|-3~--2~--0-0-0-0-5-5-5-5-3-3-3-3-3-3-3-3-5-5-5-5-5-5-5-5-|
E:|-----------------3-3-3-3-1-1-1-1-1-1-1-1-3-3-3-3-3-3-3-3-|

Gtr II

e:|----------------------------------------------|
B:|----------------------------------------------|
G:|-12~--10~--10/9-9/7-7/5--7-9-5/7--7/5-5/4-5/7-|
D:|--x----x----x-x-x-x-x-x--x-x-x-x--x-x-x-x-x-x-|
A:|-10----8~---8/7-7/5-5/3--5-7-3/5--5/3-3/2-3/5-|
E:|----------------------------------------------|

e:|---------------------------------------------------|
B:|---------------------------------------------------|
G:|-12~--12/14~--14/12/10-9/10/7--9-7-5/7/9-7-5-4/5/7-|
D:|--x----x--x----x--x--x-x--x-x--x-x-x-x-x-x-x-x-x-x-|
A:|-10~--10/12~--12/10/-8-7/-8/5--7-5-3/5/7-5-3-2/3/5-|
E:|---------------------------------------------------|

Gtr III (Listen carefully for when this comes in)

e:|-12----12----12----12----10----10----10----10----|
B:|-13----13----13----13----12----12----13----13----|
G:|----12----12----12----12----12----12----12----12-| (x2)
D:|-------------------------------------------------|
A:|-------------------------------------------------|
E:|-------------------------------------------------|

End on:

Gtr I

e:|----|
B:|-5~-|
G:|-5~-|
D:|-5~-|
A:|-3~-|
E:|----|

Gtr II

e:|----|
B:|----|
G:|-5~-|
D:|-x--|
A:|-3~-|
E:|----|

Gtr III

e:|-12~-|
B:|-13~-|
G:|-12~-|
D:|-----|
A:|-----|
E:|-----|

Related for I Dont Love You tab
Advertisement will be closed in 10 seconds