Song name
# A B C D E F G H I J K L M N O P Q R S T U V W X Y Z

My Chemical Romance - I Dont Love You chords

Highlighted       Show chord diagrams
My Chemical Romance- I Donít Love You 

This version isnít really new, Itís just the original with a capo at the second 
fret only I took out the capo so I could keep the intro from the original 
recording. I wanted too keep this because I love the intro, so, I figured out how 
to. Basically, I wanted to keep the intro. I moved it down and matched the chords 
to the song. I love playing it like this so I hope you enjoy.

Intro

   D                                   Bm                                  
e|-2----2----2----2----3----3----2----2----2---2---2----2----3----3----3----3--|
B|-3----3----3----3----3----3----3----3----3---3---3----3----3----3----2----2--|
G|---2----2----2----2----2----2----2----2----4---4---4----4----4----4----4----4|
D|-----------------------------------------------------------------------------|
A|-----------------------------------------------------------------------------|
E|-----------------------------------------------------------------------------|

   A                                   G              A              D
e|-0----0----0----0----0----0----0----0----2----2---2---2---0---0------------2-|
B|-3----3----3----3----2----2----3----3-----------------------------2---3----3-|
G|---2----2----2----2----2----2----2----2----2----2---2---2---2---2---2---2--2-|
D|---------------------------------------------------------------------------0-|
A|-----------------------------------------------------------------------------|
E|-----------------------------------------------------------------------------|

Verse 1

(Pause. Let D from intro ring)   D                                      
                   Well when you go
                               Bm
don't ever think I'll make you try to stay
                         A                  
and maybe when you get back
         -(Pause)---------  D           
I'll be off to find another way


                     D                      
And after all this time that you still owe
                            Bm             
you're still the good for nothing I don't know
                             A                  
So take your gloves and get out
                          D   
better get out while you can
                                              

Chorus
G         A                                     
When you go
          Bm    A      G
would you even turn to say

I don't love you
         A               
like I did
       D               
yesterday
                              
Verse 2
             D                     
Sometimes I cry so hard from pleading
                      Bm                  
so sick and tired of all the needless beating
                     A                         
but baby when they knock you down and out
                        D                 
it's where you ought to stay
                    D               
and after all the blood that you still owe
                  Bm                        
another dollar's just another blow
                      A             
so fix your eyes and get up, better get up
           D                               
while you can
                                           

Chorus
G         A                                     
When you go
          Bm    A      G
would you even turn to say

I don't love you
         A               
like I did
       D               
yesterday

Guitar solo- Chorus Chords


Final Chorus- (Single strums until * symbol)
G         A
When you go
          Bm        A       G 
would you have the guts to say
         G
I don't love you
        A
like I loved you
      *D Bm A           
yesterday
         G              
I don't love you
          A               
like I loved you
      D  Bm A                
yesterday
         G             
I don't love you
          A        
like I loved you
       D  (let ring)            
yesterday
Tap to rate this tab
 
# A B C D E F G H I J K L M N O P Q R S T U V W X Y Z