Song name
# A B C D E F G H I J K L M N O P Q R S T U V W X Y Z

My Chemical Romance - The Sharpest Lives tab

The Sharpest Lives
My Chemical Romance
The Black Parade

intro
(guitar 1)
e|--------------------------------------------------------------------|
b|--------------------------------------------------------------------|
g|--------------------------------------------------------------------|
d|--------------------------------------------------------------------|
a|-44444444444444444444444444444444-----------------------------------|
E|--------------------------------------------------------------------|
   Pm------------------------------

Verse 1
(guitar 1)
e|--------------------------------------------------------------------|
b|--------------------------------------------------------------------|
g|--------------------------------------------------------------------|
d|--------------------------------------------------------------------|
a|-4444444444444444---------------------------------------------------|
E|-----------------5555555555555555-2222222222222222-4444444444444444-|x2
   Pm----------------------------------------------------------------

(guitar 2)
e|--0-------0-|--0-------0----0-4-0-----------0-------0----0-4-0------|
b|-2-2-4h5-2--|-2-2-4h5-2----2-2----2-2*-----2-2-4h5-2----2-2----2-2*-|
g|------------|-------------------------------------------------------|
d|------------|-------------------------------------------------------|
a|------------|-------------------------------------------------------|
E|------------|-------------------------------------------------------|

Pre-chorus
(guitar 1)
e|--------------------------------------------------------------------|
b|--------------------------------------------------------------------|
g|-6~--8~------6------------6~---5-5-5-5-5-5-5-5----------------------|
d|-7~--9~--6~--6------------7~---6-6-6-6-6-6-6-6----------------------|
a|-4~--6~--6~--4--2-4-------4~---3-3-3-3-3-3-3-3----------------------|
E|---------4~---------------------------------------------------------|

e|-5~--7~--8~--9~-----------5----4-4-4-4-4-4-4-4----------------------|
b|-5~--7~--9~--9~-----------5----4-4-4-4-4-4-4-4----------------------|
g|-6~--8~--8~--9~-----------6----5-5-5-5-5-5-5-5----------------------|
d|----------------------------7---------------------------------------|
a|--------------------------------------------------------------------|
E|--------------------------------------------------------------------|

Chorus
(guitar 1)
e|--------------------------------------------------------------------|
b|--------------------------------------------------------------------|
g|-6-6-6-6-6-6-6-6----------------------------------------------------|
d|-6-6-6-6-6-6-6-6-7-7-7-7-7-7-6-6-4-4-4-4-4-4-4-4-6-6-6-6-6-6-6-6----|
a|-4-4-4-4-4-4-4-4-7-7-7-7-7-7-6-6-4-4-4-4-4-4-4-4-6-6-6-6-6-6-6-6----|
E|-----------------5-5-5-5-5-5-4-4-2-2-2-2-2-2-2-2-4-4-4-4-4-4-4-4----|x2

(guitar 2)
e|--------------------------------------------4-4-4-4-4-4-4-4---------|
b|--------------------------------------------------------------------|
g|-6-6-6/9/13-13-13/11----9-9-9/11/6-6-6-6----------------------------|
d|-x-x-x/x/-x--x--x/-x----x-x-x/-x/x-x-x-x----------------------------|
a|-4-4-4/7/11-11-11/-9----7-7-7/-9/4-4-4-4----------------------------|
E|--------------------------------------------------------------------|

e|--------------------------------------------------------------------|
b|--------------------------------------------------------------------|
g|-13-13-13-13-13-13-13-13--------13/11/9-----------------------------|
d|--x--x--x--x--x--x--x--x---------x/-x/x-----------------------------|
a|-10-10-10-10-10-10-10-10--------11/-9/7-----------------------------|
E|--------------------------------------------------------------------|x2

Pre-verse
(guitar 1)
e|--------------------------------------------------------------------|
b|--------------------------------------------------------------------|
g|---------6----------------------------------------------------------|
d|---------6----------------------------------------------------------|
a|-4444444444444444---------------------------------------------------|
E|--------------------------------------------------------------------|
   Pm------ Pm-----

Verse 2
(guitar 1)
e|--------------------------------------------------------------------|
b|--------------------------------------------------------------------|
g|-6-6-6-6-6-6-6-6----------------------------------------------------|
d|-6-6-6-6-6-6-6-6-7-7-7-7-7-7-7-7-4-4-4-4-4-4-4-4-6-6-6-6-6-6-6-6----|
a|-4-4-4-4-4-4-4-4-7-7-7-7-7-7-7-7-4-4-4-4-4-4-4-4-6-6-6-6-6-6-6-6----|
E|-----------------5-5-5-5-5-5-5-5-2-2-2-2-2-2-2-2-4-4-4-4-4-4-4-4----|
   Pm-------------------------------------------------------------

(guitar 2)
e|--0-------0----0-4-0------------------------0-------0----0-4-0------|
b|-2-2-4h5-2----2-2----2-2*------------------2-2-4h5-2----2-2----2-2*-|
g|--------------------------------------------------------------------|
d|--------------------------------------------------------------------|
a|--------------------------------------------------------------------|
E|--------------------------------------------------------------------|

>Play pre-chorus with this fill-in during it<
g|-------------------------------|
d|-------------------------------|
a|-/4-6-7-9-7-6-7---/4-6-7-9--6~-|
E|-------------------------------|

>Play Chorus<

(guitar 1)
e|--------------------------------------------------------------------|
b|-------------------7*-----------------------------------------------|
g|--6-6-6--6-6-6-----7*-----------------------------------------------|
d|--6-6-6--6-6-6-----7*-----------------------------------------------|
a|--4-4-4--4-4-4------------------------------------------------------|
E|--------------------------------------------------------------------|
    Pm---  Pm---

Solo
(guitar 1)
e|--------------------------------------------------------------------|
b|--------------------------------------------------------------------|
g|-6-6-6-6-5-5-5-5----------------------------------------------------|
d|-----------------6-6-6-6--------------------------------------------|
a|-------------------------6-6-6-6------------------------------------|
E|--------------------------------------------------------------------|x6

(guitar 2) (figure out the "12 15b" and "13 16b" strumming pattern) 
e|-12--13--12--13-----------------------------------------------------|
b|-15b-16b-15b-16b----------------------------------------------------|
g|--------------------------------------------------------------------|
d|----------------------12b-12b-12b-9-7-6-7-9--7h9p7-6~---------------|
a|--------------------------------------------------------------------|
E|--------------------------------------------------------------------|

(guitar 1)
e|--------------------------------------------------------------------|
b|--------------------------------------------------------------------|
g|--------------------------------------------------------------------|
d|--------------------------------------------------------------------|
a|-------------------------11/---------------11/---------------11~----|
E|----------------------------------11/---------------11/-------------|

(guitar 2)
e|-------------------------17-15-13----17-15-13----17-15-13----17~----|
b|----------------------------------17----------17----------17--------|
g|--------------9-11-13~----------------------------------------------|
d|-/10-10-11-13-------------------------------------------------------|
a|--------------------------------------------------------------------|
E|--------------------------------------------------------------------|

>Play Chorus<

Outro
(guitar 1)
e|--------------------------------------------------------------------|
b|--------------------------------------------------------------------|
g|-6-6-6-6-6-6-6-6----------------------------------------------------|
d|-6-6-6-6-6-6-6-6-7-7-7-7-7-7-7-7-4-4-4-4-4-4-4-4-6-6-6-6-6-6-6-6----|
a|-4-4-4-4-4-4-4-4-7-7-7-7-7-7-7-7-4-4-4-4-4-4-4-4-6-6-6-6-6-6-6-6----|
E|-----------------5-5-5-5-5-5-5-5-2-2-2-2-2-2-2-2-4-4-4-4-4-4-4-4----|x2

(guitar 2)
e|-0000000000000000-0000000000000000-0000000000000000-000000000000000-|
b|-5555555555555555-4444444444444444-2222222222222222-111111111111111-|
g|--------------------------------------------------------------------|
d|--------------------------------------------------------------------|
a|--------------------------------------------------------------------|
E|--------------------------------------------------------------------|x2


after that play this
(guitar 1)
e|--------------------------------------------------------------------|
b|--------------------------------------------------------------------|
g|--------------------------------------------------------------------|
d|--------------------------------------------------------------------|
a|-4444444444444444/---(use some effect or whatever-------------------|
E|-------------------------to go an octave down)----------------------|

The End

give comments please even if they are like "this tab sucks you have no business listening to mcr"
Tap to rate this tab
# A B C D E F G H I J K L M N O P Q R S T U V W X Y Z