Song name
# A B C D E F G H I J K L M N O P Q R S T U V W X Y Z

My Chemical Romance - Hang Em High tab

Hang Em High - My Chemical Romance

Tabbed by:BDonGraffiti
Email:SprtXplrer@aol.com

Tuning:Standard

Guitar 1 (Left earphone): Intro
e|-1~---0~-1~--0~----------------------------------------------------------|
B|-3~---1~-1~--2~----------------------------------------------------------|
G|-2~---0~-2~--2~----------------------------------------------------------|
D|-0~---2~-3~--2~/----------/8888101010108888777777775533333333333777777887|
A|---------------/pickscrape/----------------------------------------------|
E|---------------/----------/----------------------------------------------|

Guitar 2 (right earphone): Intro
e|-------------------------------------------------------------|
B|-6-8-10-8-6-55-6-5-10-11-13-11-10-------------------7-10---5-|
G|-7-9-10-9-7-55-7-5-10-12-14-12-10---14--------------7-10---5-|
D|----------------------------------11--14/----------/5--8-7-4-|
A|----------------------------------------/pickscrape/-----7---|
E|----------------------------------------/----------/-----5---|

Guitar 1: Verse 1
e|--------------------------------------------------------|
B|--------------------10-10-10-10-10-10-10-10-------------|
G|-7~--9-10~--9-10-12~------------------------9-10-12-10~-|
D|-x---x--x---x--x--x-------------------------x--x--x--x--|
A|-5~--7--8~--7--8-10~------------------------7--8-10--8~-|
E|--------------------------------------------------------|

Guitar 2: Verse 1                                          
e|-------------------------------------------------------------------------|
B|---------------------------------------------------------|-8x-|----------|
G|------------------------------------7------------------------7-5~-9-10-12|
D|-77-78-77-87-777777-78-77-87-777777-78-77-87-7777-5~3-2~---777-x--x--x--x|
A|-55-55-55-55-555555-55-55-55-555555-55-55-55-5555-------4~-555-3~-7--8-10|
E|-------------------------------------------------------------------------|
 PM..    ..    ......    ..    ......    ..    ....          ..

Guitar 1: Pre-Chorus
e|----------------------------------------------------------------|
B|----------------------------------------------------------------|
G|------------------------------------------------777777777777777-|
D|-888888888888888-111111111111111111111111111111-777777777777777-|
A|-888888888888888-111111111111111111111111111111-555555555555555-|
E|-666666666666666--9-9-9-9-9-9-9-9-9-9-9-9-9-9-9-----------------|

e|---------------------------------------|
B|---------------------------------------|
G|-101010101010-1010-99-12-10-9-10-9-7-6-|
D|--x-x-x-x-x-x--8-8-77--x--x-x--x-x-x-x-|
A|--8-8-8-8-8-8---------10--8-7--8-7-5-4-|
E|---------------------------------------|

Guitar 2: Pre-Chorus
e|-------------------------------------------------------------------------|
B|-------------------------------------------------------------------------|
G|------------------------------------------------777777777777777----------|
D|-888888888888888-111111111111111111111111111111-777777777777777----------|
A|-888888888888888-111111111111111111111111111111-555555555555555----------|
E|-666666666666666--9-9-9-9-9-9-9-9-9-9-9-9-9-9-9--------------------------|

e|----------------------------------------------------------|
B|----------------------------------------------------------|
G|----------------------------------------------------------|
D|-33333333-77777777-8888888888888888-11111111-/----------/-|
A|-33333333-77777777-8888888888888888-11111111-/pickscrape/-|
E|-11111111-55555555-6666666666666666--9-9-9-9-/----------/-|

Guitar 2: Verse 2 (repeat verse 1)

Guitar 1: Verse 2
e|---------------------|--------------------------------------|
B|-1010----------------|--------------10-10-10-10-10-10-10-10-|
G|-----9999101010107777|-667777999910-------------------------|
D|---------------------|--------------------------------------|
A|----play 3x----------|--------------------------------------|
E|---------------------|--------------------------------------|

e|---------------------------------------12121212-|
B|-10101010---------------------------------------|
G|---------999910101012121212999912121212---------|
D|------------------------------------------------|
A|------------------------------------------------|
E|------------------------------------------------|

play Pre-Chorus

Guitar 1: Chorus (repeat fig 1 after fig 2, then fig 3)
e|-------------------------------------|---------|----------|
B|---------figure-1--------------------|fig-2----|----------|
G|-------------------------------------|12~-10-9~|-12-10-14~|
D|-7777-10101010-88888888-7777-10101010|-x---x-x-|--x--x--x-|
A|-7777-10101010-88888888-7777-10101010|10~--8-7~|-10--8-12~|
E|-5555--8-8-8-8-66666666-5555--8-8-8-8|---------|----------|

Guitar 2: Chorus
e|-----------------------------------------------|
B|-----------------------------------------------|
G|-7777-10101010----------7777-10101010-55555555-|
D|-7777-10101010-88888888-7777-10101010-55555555-|
A|-5555--8-8-8-8-88888888-5555--8-8-8-8-33333333-|
E|---------------66666666------------------------|

Guitar 1: Pre-Bridge tremelo 
e|-10-10-10-12-13-13-13-13-13-13-13-13-13-13-13-13-|
B|-------------------------------------------------|
G|-------------------------------------------------|
D|-------------------------------------------------|
A|-------------------------------------------------|
E|-------------------------------------------------|

Guitar 2:Pre-Bridge tremelo
e|-----------------------------------|
B|-----------------------------------|
G|-8-7-10-8-7-8-7-7-8-10-8-7-8-7-8-7-|
D|-----------------------------------|
A|-----------------------------------|
E|-----------------------------------|

Guitar 1: Bridge prt 1
e|----------------------------------------------------|
B|----------------------------------------------------|
G|----------------------------------------------------|
D|----------------------------------------------------|
A|-8~--7h8-7~--5-4~-4-5-7-5~-4~-7-5~-4-5-7-5~-5-4-/12-|
E|----------------------------------------------------|

Guitar 2: Bridge prt 1
e|---------------------------------------------------|
B|---------------------------------------------------|
G|---------------------------------------------------|
D|---------------------------------------------------|
A|---------------------------------------------------|
E|-10~--8h10-8~-6-5~-3-5-6-5~-3-5-1~-0-1-3-1~-1-0~-5~|

Guitar 1: Bridge prt 2 tremelo
e|-5-6-8-6-5-1-3-5-6-8-6-5-1-5-|
B|-----------------------------|
G|-----------------------------|
D|-----------------------------|
A|-----------------------------|
E|-----------------------------|

Guitar 2: Bridge prt 2 tremelo
e|-----------------------------|
B|-----------------------------|
G|-7-8-10-7-3-5-7-8-10-8-7-3-2-|
D|-----------------------------|
A|-----------------------------|
E|-----------------------------|

play chorus 2 more times

the end..just mess around with your guitar strings and what not and your're godd to go!

| /  slide up
| \  slide down
| h  hammer-on
| p  pull-off
| ~  vibrato/let ring
| <> harmonic
| x  mute note
| .  palm mute
| b  bend
Tap to rate this tab
# A B C D E F G H I J K L M N O P Q R S T U V W X Y Z