My Chemical Romance - Na Na Na tab

-------------------------------------------------------------------------------
			     Na Na Na - My Chemical Romance
-------------------------------------------------------------------------------
Tabbed by: Ryan
Email:

Tuning: standard

Intro:
e|-------------------------------------------------------------------------------
B|-------------------------------------------------------------------------------
G|-------------------------4-----------------------------------------------------
D|-6--6-4-6--6-4-6--6-4-6----6-4-------------------------4-----------------------
A|--------------------------------6--6-4-6--6-4-6--6-4-6----6-5--4--4-2-4--4-2---
E|-------------------------------------------------------------------------------

e|--------------------------------------|
B|--------------------------------------|
G|--------------------------------------|
D|-4--4-2-4--5-6-6--6-4-6-4---888888----| x 2
A|----------------------------666666----|
E|--------------------------------------|

Verse:
e|----------------------------------------------------|
B|----------------------------------------------------|
G|-88-8\--8888888888888-------------------------------|
D|-66-6\--6666666666666-------88-8\--8888888888888----|
A|----------------------------66-6\--6666666666666----|
E|----------------------------------------------------|
   ..     .............       ..     .............

e|----------------------------------------------------|     |-----------|
B|----------------------------------------------------|     |-----------|
G|-------------------66-6\--66666-----88-8\--8888-----|     |-----------|
D|-66-6\--66666------44-4\--44444-----66-6\--6666-----|     |--8888888--|
A|-44-4\--44444---------------------------------------|     |--6666666--|
E|----------------------------------------------------|     |-----------|
   ..     .....      ..     .....     ..     ....

e|------------------------------------------------------|    |-----------|
B|------------------------------------------------------|    |-----------|
G|-8-------------------------------6---------8----------|    |--6666666--|
D|-6-(x 16)----8---------6---------4-(x 8)---6-(x 8)----|    |--4444444--|
A|-------------6-(x 16)--4-(x 8)------------------------|    |-----------|
E|------------------------------------------------------|    |-----------|

Chorus:
e|-------------------------------------------------------------|
B|-------------------------------------------------------------|
G|-----------11---------------------9--------9/11---11---------|
D|-9---------11----------6----------9--------9/11---11---------|    x 2
A|-9----------9-(x 16)---6----------7-(x 8)--7/-9----9-(x 6)---|
E|-7-(x 16)--------------4-(x 16)------------------------------|

e|--------------------------------------------------|
B|--------------------------------------------------|
G|----------------------6-4-6-4---------------------|
D|-6--6-4-6--6-4-6--6-4----------6--6-4-6--6-4-6\---|
A|--------------------------------------------------|
E|--------------------------------------------------|

e|----------------------------------------------------------------|
B|----------------------------------------------------------------|
G|-88-8----------------------------6-6-6-6--88888888--6666666-----|
D|-66-6-(x 4)--88-8--------6-6-6-6-4-4-4-4--66666666--4444444-----|
A|-------------66-6-(x 4)--4-4-4-4--------------------------------|
E|----------------------------------------------------------------|
   ..          ..

Repeat Chorus

Breakdown (play with it)
e|-----------------------------|
B|-----------------------------|
G|-----------------------------|
D|-6--5--4--3------2--4--6-----|
A|-------------4-6-------------|
E|-----------------------------|

Solo:
e|------------------------------------------------------------------------------------|
B|------------------------------------------------------------------------------------|
G|-8--8------8--8------8--8------8-11-11-8--------------------------------11-11/12----|
D|------11--------11--------11--------------11--11-9-11--11-9-11--11-9-11-------------|
A|------------------------------------------------------------------------------------|
E|------------------------------------------------------------------------------------|

e|----------------------------------------------------------|
B|-12--12-11-12-12--12-12/14\12---9--- 11-11--12---16--14---|
G|-13--13-11-13-13--13-13/15\13--11b--13b13b-14b--18b\16b---|
D|----------------------------------------------------------|
A|----------------------------------------------------------|
E|----------------------------------------------------------|

Repeat Chorus

End on:
e|-----|
B|-----|
G|--4--|
D|--4--|
A|--2--|
E|-----|



************************************

| .    palm mute
| /   slide up
| \   slide down

************************************
Tap to rate this tab
 
# A B C D E F G H I J K L M N O P Q R S T U V W X Y Z