Song name
# A B C D E F G H I J K L M N O P Q R S T U V W X Y Z

My Chemical Romance - Save Yourself Ill Hold Them Back tab

----------------------------------------------------------------------------------
                    Save Youreslf, I'll Hold Them Back (Intro tab)
                               My Chemical Romance
                 Danger Days: The True Lives Of The Fabulous Killjoys
----------------------------------------------------------------------------------

Tabbed by: Liam
Email: the_oister@hotmail.com

I've only managed to tab the intro, I think it's close to 100% correct, or at least my 
I don't mind use this to help make your own full song tab.
This is the text version of my Guitar Pro tab.

e-------0--------------------0-------------------3--------------------------------|
B-------8------8p7------7h8--8-------------------3------3-----------5-------------|
G-------9------9---7----7----7-------------------4---------4--------5-----0-------|
D-------9---------------9----9-------------------5------------------5-------0-----|
A---7-------7-----------------------9-8-7--5-----5------------3---3---0h3-----2s7-|
E-------------------------------0---7-6-5--3---3-----3----------------------------|

e-------0--------------------0-------------------3--------------------------------|
B-------8------8p7------7h8--8-------------------3------3-----------5-------------|
G-------9------9---7----7----7-------------------4---------4--------5-----0-------|
D-------9---------------9----9-------------------5------------------5-------0-----|
A-----------7-----------------------9-8-7--5-----5------------3---3---0h3-----2s7-|
E---0---------------------------0---7-6-5--3---3-----3----------------------------|

Repeat

Please rate/comment/correct :)
Tap to rate this tab
 
# A B C D E F G H I J K L M N O P Q R S T U V W X Y Z