Guitaretab - guitar tabs
Song name
# A B C D E F G H I J K L M N O P Q R S T U V W X Y Z

My Chemical Romance - This Is How I Dissapear tab

THIS IS HOW I DISSAPREAR

Album the black parade
Tuning standard
Artist my chemical romance
Tabbed by  Matt.MCR

This is my first tab and Im not sure how good it is but it sounds good when you play along to the track

This it should give you the jist.
not to sure about the second half of intro, I think its the first bit but faster and 
interlude is hard to hear.

Intro
Guitar 1
|-------------------------------------------------------|
|-------------------------------------------------------|
|---7---------------- ----------------------------------|
|---7-x12-----7---------3---------7-----------|--|X2
|---5---------7-x12-----3-X12-----7-X10-----------------|
|-------------5---------1---------5---------------------|
Guitar2
|----------------------------------------------------------------------------|
|----------------------------------------------------------------------------|
|---4-------9-10-------------------------------------7-----------------------|X2
|---x-x10-x-x-x-----7-------8-7-6----3-------5-7-8---7-X10-------------------|
|---5-------7-8-----x-x10---x-x-x----x-X10---x-x-x---5-----------------------|
|-------------------5-------6-5-4----1-------3-5-6---------------------------|


VERSE 1
Guiter1
|----------------------------|
|----------------------------|
|-----77---77---77---77------|
|-----77---77---77---77------|
|-----55---55---55---55------|
|----------------------------|


Guitar 1
|-------------------------------------------------------------|
|-------------------------------------------------------------|
|------7xxx7xxx7xxx7xxx7xxx7xxx7xxx7xxx7xxx7------------------|
|------7xxx7xxx7xxx7xxx7xxx7xxx7xxx7xxx7xxx7------------------|X2
|------5xxx5xxx5xxx5xxx5xxx5xxx5xxx5xxx5xxx5------------------|
|-------------------------------------------------------------|
Guitar 2
|---------------------------------------------------------------|
|---------------------------------------------------------------|
|--7-7-7-7----7-7-7-7-------------------------------------------|
|--7-7-7-7----7-7-7-7----7-7-7-7----3-3-3-3/7----7-7-7-7--------|
|--5-5-5-5----5-5-5-5----7-7-7-7----3-3-3-3/7----7-7-7-7--------|
|------------------------5-5-5-5----1-1-1-1/5----5-5-5-5--------|
Then
Guitar 1
|-------------------------------------------------------------|
|-------------------------------------------------------------|
|----3/-------------------------------------------------------|
|-------------------------------------------------------------|
|-------------------------------------------------------------|
|-------------------------------------------------------------|

Guitar 2
|----------------------------------------------------------------|
|----------------------------------------------------------------|
|--------------------7----9---10---11---13-----------------------|
|--------------------7----9---10---11---13-----------------------|
|--------------------5----7---8-----9---11-----------------------|
|----------------------------------------------------------------|


Chorus
[ Tab from: http://www.guitaretab.com/m/my-chemical-romance/80581.html ]
Guitar 1 and 2
|-------------------------------------------------------|
|-------------------------------------------------------|
|--7777777777-------------------------------------------|
|--777777777755555555533333333332222222222--------------| X2
|--555555555555555555533333333332222222222--------------|
|------------33333333311111111110000000000--------------|

Verse 2
|------------------------------|
|----777777777777777777777-----|
|----777777777777777777777-----|
|----555555555555555555555-----|
 P.M***********************

Repeat Verse 1 and Chorus

Interlude
Not sure about this?
Guitar1
|--------------------------------------------------------------------------------------|
|------17p16-17p16-17p16-19p17-19p17-21p19p17p15-17p16-17p15-17p16-----15b-15b-15b-14b-|
|--------------------------------------------------------------------------------------|
|--------------------------------------------------------------------------------------|
|--------------------------------------------------------------------------------------|
|--------------------------------------------------------------------------------------|
Guitar 1
|--------------------------------------|
|-5-8-7-4-----4-4-4-4-4-4-4---5-8-7-4--|
|--------------------------------------|
|--------------------------------------|
|--------------------------------------|
|--------------------------------------|

Guitar 2
|--------------------------------------|
|-5-8-7-4-----4-4-4-4-4-4-4---5-8-7-4--|
|-5-8-7-4-----4-4-4-4-4-4-4---5-8-7-4--|
|-3-6-5-2-----2-2-2-2-2-2-2---3-6-5-2--|
|--------------------------------------|
|--------------------------------------|
PM.***********************************


Guitar 1 and 2
|------------------------------------------------------------------------------------|
|-------------------------------------------------------15b-15b-15b-14b-14b-14b------|
|------------------------------------------------------------------------------------|
|--------------------------6-6-------------------------------------------------------|
|--5b-8b-7b-4b----5b-8b-7b-6-6-5b-8b-7b-4b----5b-8b-7b-------------------------------|
|--------------------------4-4-------------------------------------------------------|
                       P.M* *

Guitar1
|--------------------------------------------------|
|--------------------------------------------------|
|-----7------7------7---------5-----5--------------|
|-----777777777777777-5-----5-5555555-xxxx3xxxxx2--|
|-----555555555555555-5555555-3333333-xxxx3xxxxx2--|
|---------------------3333333---------xxxx1xxxxx0--|
P.M   ****** ******   *****   *****


|--------------------------------------------------|
|--------------------------------------------------|
|-----7------7------7---------5-----5--------------|
|-----777777777777777-5-----5-5555555-33333222222--|
|-----555555555555555-5555555-3333333-33333222222--|
|---------------------3333333---------11111000000--|
P.M   ****** ******   *****   *****

Guitar 2
|--------------------------------------------------|
|--------------------------------------------------|
|-----7------7------7---------5-----5--------------|
|-----7------7------7-5-----5-5-----5-----3-----2--|
|-----5------5------5-5-----5-3-----3-----3-----2--|
|---------------------3-----3-------------1-----0--|


|----------------------------------------------------|
|----------------------------------------------------|
|-----7------7------7---------5-----5----------------|
|-----7------7------7-5-----5-5-----5-33333222222----|
|-----5------5------5-5-----5-3-----3-33333222222----|
|---------------------3-----3---------11111000000----|

Repeat chorus

Finish on
|----|
|----|
|-7--|
|-7--|
|-5--|
|----|

Please rate
Related for This Is How I Dissapear tab