Song name
# A B C D E F G H I J K L M N O P Q R S T U V W X Y Z

My Morning Jacket - Dondante tab

-------------------------------------------------------------------------------

                         My Morning Jacket - Dondante

-------------------------------------------------------------------------------
Tabbed by: Alex Barnes
Email: star_ball74@hotmail.com

Tuning: Standard

===============================================================================

intro:

   G

e|-3-|
B|-3-|
G|-4-|
D|-5-|
A|-5-|
E|-3-|

verse:

  Cm   G

e|-8---3-|
B|-8---3-|
G|-8---4-|
D|-10--5-|
A|-10--5-|
E|-8---3-|

wordless singing:

  Fm  Cm

e|-8--8--|
B|-9--8--|
G|-10-8--|
D|-10-10-|
A|-8--10-|
E|----8--|

verse 2:

  Cm   G

e|-8---3-|
B|-8---3-|
G|-8---4-|
D|-10--5-|
A|-10--5-|
E|-8---3-|

wordless singing 2:

  Fm  Cm

e|-8--8--|
B|-9--8--|
G|-10-8--|
D|-10-10-|
A|-8--10-|
E|----8--|


"You never left these streets..."

  Cm  Gm Gm7

e|-8---10--10-|
B|-8---11--11-|
G|-8---12--10-|
D|-10--12--12-|
A|-10--10--10-|
E|-8----------|

e|-------------------|
B|-13-16-16-16b18r16-|
G|-------------------|
D|-------------------| 2x
A|-------------------|
E|-------------------|

e|---------------------------------------------|
B|---------------------------------------------|
G|-12-15-15b17r15--12--------------------------|
D|--------------------15b17r15r13---13---------|
A|--------------------------------15--15p13h15-|
E|---------------------------------------------|

e|--------------------------------|
B|-13-16-16-16b18r16--13-16b18r16-|
G|--------------------------------|
D|--------------------------------|
A|--------------------------------|
E|--------------------------------|

e|------------------------------------------------------------------|
B|------------------------------------------------------------------|
G|-12-15-15b17r15--12-----------------------------------------------|
D|--------------------15b17r15r13---13---------13--------13---------|
A|--------------------------------15--15p13h15---15p13h15--15p13h15-|
E|------------------------------------------------------------------|

e|-16-15----------------------|
B|-------13-16-13-16-16b18r16-|
G|----------------------------|
D|----------------------------| 5x
A|----------------------------|
E|----------------------------|

e|-16-15-------------------|
B|-------13-16-13-16-13-16-|
G|-------------------------|
D|-------------------------|
A|-------------------------|
E|-------------------------|

e|-16-15-18-18-18-20-20-20-20-20-20-20-20-20-20-20-20-20-20-|
B|----------------------------------------------------------|
G|----------------------------------------------------------|
D|----------------------------------------------------------|
A|----------------------------------------------------------|
E|----------------------------------------------------------|


"You have me worried..."

   Fm Cm

e|-8---8--|
B|-9---8--|
G|-10--8--|
D|-10--10-|
A|-8---10-|
E|-----8--|

"...that this will end..."

e|-10-10-10-10-10-10-10-10-10-10-10-10-8-8-8-8-8-8-8-8-8-8-8-8-|
B|-11-11-11-11-11-11-11-11-11-11-11-11-9-9-9-9-9-9-9-9-9-9-9-9-|
G|-------------------------------------------------------------|
D|-------------------------------------------------------------|
A|-------------------------------------------------------------|
E|-------------------------------------------------------------|

e|-8-8-8-8-8-8-8-8-8-8-8-8-8-8-8-8-----------------------------|
B|-9-9-9-9-9-9-9-9-9-9-9-9-9-9-9-8---------let ring------------|
G|-------------------------------------------------------------|
D|-------------------------------------------------------------|
A|-------------------------------------------------------------|
E|-------------------------------------------------------------|

e|-10-10-10-10-10-10-10-10-10-10-10-10-8-8-8-8-8-8-8-8-8-8-8-8-|
B|-11-11-11-11-11-11-11-11-11-11-11-11-9-9-9-9-9-9-9-9-9-9-9-9-|
G|-------------------------------------------------------------|
D|-------------------------------------------------------------|
A|-------------------------------------------------------------|
E|-------------------------------------------------------------|

e|---------8-----------8----8-8-11-13-13b15r13-13-13-13p11----|
B|-8-11-11b--8-11-11b-8-8-11-------------------------------13-|
G|------------------------------------------------------------|
D|------------------------------------------------------------|
A|------------------------------------------------------------|
E|------------------------------------------------------------|

e|-11-13-13b15r13-13-13p11----11-13------11-13-------|
B|-------------------------13------13-13-------13-13-|
G|---------------------------------------------------|
D|---------------------------------------------------|
A|---------------------------------------------------|
E|---------------------------------------------------|

e|-11-11h13p11---11--11h13p11----11h13p11--11-13/16-15-|
B|-------------13--13---------13---------13------------| (may not be perfect
G|-----------------------------------------------------|       hard to hear)
D|-----------------------------------------------------|
A|-----------------------------------------------------|
E|-----------------------------------------------------|

e|-15-15-15-15-15-15-15/18-18-18-18-18-18-18-18-18-20-20-20-20-20-20-20-20-|
B|-------------------------------------------------------------------------|
G|-------------------------------------------------------------------------| 
D|-------------------------------------------------------------------------|
A|-------------------------------------------------------------------------|
E|-------------------------------------------------------------------------|

e|-20-18-16--15--18-16-15-16-15b-------18-18-16-15-16-15b-------|
B|-------------------------------18-18--------------------18-18-|
G|--------------------------------------------------------------|
D|--------------------------------------------------------------|
A|--------------------------------------------------------------|
E|--------------------------------------------------------------|

e|-----------15-16-15-------15-15-----15-15------|
B|-18-18-18--------------------------------------|
G|--------------------17-17------17-17-----17-17-|
D|-----------------------------------------------|
A|-----------------------------------------------|
E|-----------------------------------------------|


| /  slide up
| \  slide down
| h  hammer-on
| p  pull-off
| ~  vibrato
| +  harmonic
| x  Mute note

===============================================================================
Tap to rate this tab
 
# A B C D E F G H I J K L M N O P Q R S T U V W X Y Z