Song name
# A B C D E F G H I J K L M N O P Q R S T U V W X Y Z

My Morning Jacket - Golden tab

"Golden"


****Capo 3rd fret****


Chords used (relative to capo):

D   GM7   Em   A7

2    0    0    0
3    3    0    2
2    4    0    0
0    5    2    2
0    0    2    0
x    x    0    x


Em* and Em6 can either be played like this:

Em*   Em6

7     9
8     8
9     9
x     x
x     x
x     x

or like this:

Em*   Em6

3     3
5     5
4     4
0     0
x     4
x     x

Intro:

e------------------------------------------|
B------------------------------------------|
G-2-----2---4-----4---4-----4---6-----6----|
D---0-----0---0-----0---5-----5---5-----5--|
A-0---0-----0---0-----0---0-----0---0------|
E------------------------------------------|


e------------------------------------------|
B------------------------------------------|
G-6-----6---7-----7---7-----7---9-----9----|
D---7-----7---7-----7---7-----7---9-----9--|
A-0---0-----0---0-----0---0-----0---0------|
E------------------------------------------|


e-------------------------------|
B-------0-------------0---------|
G----------9-------------9------|
D----9--------9----9--------9---|
A--0----0--------0----0---------|
E-------------------------------|


Verses:

e-------------------------------------------|
B-------------------------------------------|
G------2---------2---------2---------2------|
D------0-0-------0-0-------0-0-------0-0----|
A--0-0-----0-0-0-----0-0-0-----0-0-0-----0--|
E-------------------------------------------|
   watchin' a stretch of road


e-------------------------------------------|
B-----(3)-------(3)-------(3)-------(3)-----|
G------4---------4---------4---------4------|
D------4-4-------4-4-------4-4-------4-4----|
A--0-0-----0-0-0-----0-0-0-----0-0-0-----0--|
E-------------------------------------------|
   miles of light explode


e-------------------------------------------|
B-------------------------------------------|
G------2---------2---------2---------2------|
D------0-0-------0-0-------0-0-------0-0----|
A--0-0-----0-0-0-----0-0-0-----0-0-0-----0--|
E-------------------------------------------|
   driftin' off a thing I'd


e-------------------------------------------|
B-------------------------------------------|
G------9---------9---------9---------9------|
D------9-9-------9-9-------9-9-------9-9----|
A--0-0-----0-0-0-----0-0-0-----0-0-0-----0--|
E-------------------------------------------|
   never done before

watchin' a crowd roll in
out go the lights, it begins
a feelin' in my bones
i never felt before

D                  GM7
mm-mm-mmm...       mm-mmm-mm...
D                  GM7
mm-mm-mmm...       mm-mmm-mm...

Em*           Em6
people always told me
     D               GM7
that bars are dark & lonely
    Em            A7                  D
and talk is often cheap & filled with air
Em*                  Em6
sure, sometimes they thrill me
    D                  GM7
but nothin' could ever chill me
         Em                A7
like the way they make the time
         D
just disappear

(intro again)


(same as before)
feelin' you here again
hot on my skin again
feelin' good
a thing i'd never known before

what does it mean to feel?
millions of dreams come real
a feelin' in my soul
i'd never felt before

mmm...
and you always told me
no matter how long it holds me
if it falls apart or makes us millionaires
you'll be right here forever
we'll go thru this thing together
and on heaven's golden shore
we'll lay our heads


(tabbed by shmortisborg)
Tap to rate this tab
# A B C D E F G H I J K L M N O P Q R S T U V W X Y Z