Guitaretab - guitar tabs
Song name
# A B C D E F G H I J K L M N O P Q R S T U V W X Y Z

My Vitriol - Always Your Way Acoustic tab

MY VITRIOL  ALWAYS YOUR WAY (ACOUSTIC VERSION)

drop D tuning


Intro

E--9----9------------------------------------------------x---x--------|
B--10---10-----------------------------------------------x---x--------|
G-11---11----------------6b-9-11-6----------------------7---6--------|
D--0----9---x2-------------------------------------------0---0--------|
A--x----9---------strum roughly over these---------------x---x--------|
D--x----9--------notes muting the top strings EandB------9---7--------|

Verses
[ Tab from: http://www.guitaretab.com/m/my-vitriol/82872.html ]
E---9-----9----x---x---2(2)------|
B---10---10----0---0---3(2)------|
G---11---11----0---0---2-(2)------|
D---0----9-----0---0---0----------|
A---x----9-----0---0---0----------|
D---x----9-----5---2---0----------|

Chorus

E--0---x---2--0------0--x--2---------------------------------|
B--7---0---3--2------7--0-3--------3-5-7--------------------| 
G--0---0---2--2------0--0--2---------------------------------|
D--0---0---0--2------0--0--0-----again strum roughly----x2---|
A--7---0---0--0------7--0--0--------over these notes---------|
D--x---5---0--x------x--5--0---------------------------------|
Related for Always Your Way Acoustic tab