Guitaretab - guitar tabs
Song name
# A B C D E F G H I J K L M N O P Q R S T U V W X Y Z

Myers Stanley - Cavatina tab

E-------------------------------------------------------------------------12-12-11-9-9-11>12-11--|
B0-0------2-----2------------------------------------------------12-----------------------------|
G--------2-4---2-44-2-4-2-1-1-----------------------------13------------------------------------|
D-------------------------------------4-2>4-2-2-2-2-4-1-2-14-------------------------------------|
A------------------------------------------------------------------------------------------------|
E------------------------------------------------------------------------------------------------|


E-----------------------------------------------------------------------------------------|
B-14-12-10-9-10>12--------------------------------------------------12-12-10-12>14-10-12--|
G-----------------------11>13-9-11>13-11-9>11-9-9-9-9>11-8-9------------------------------|
D-----------------------------------------------------------------------------------------|
A-----------------------------------------------------------------------------------------|
E-----------------------------------------------------------------------------------------|


E------------------------------------------------------------------------12-12-11-9-9-11>12-11--|
B14-12-10-12-10----------------------------------------------12--------------------------------|
G---------------------13-13-11-9>11-9-9-9-9>11-8-9-----13---------------------------------------|
D------------------------------------------------------------14---------------------------------|
A-----------------------------------------------------------------------------------------------|
E-----------------------------------------------------------------------------------------------|

[ Tab from: http://www.guitaretab.com/m/myers-stanley/13148.html ]
E-----------------------------------------------------------------------------------12-11-12-14--|
B-14-12-10-9-10>12-12-------------------10-11-11>12-12-12-12-11-12-------------------------------|
G---------------------------11>13-9-11-13--------------------------------------------------------|
D------------------------------------------------------------------------------------------------|
A------------------------------------------------------------------------------------------------|
E------------------------------------------------------------------------------------------------|


E-14>19-19-19-17-19-21-17-19-21-19-17-16-16-14-12>14-12-12-12-12>--|
B------------------------------------------------------------------|
G------------------------------------------------------------------|
D------------------------------------------------------------------|
A------------------------------------------------------------------|
E------------------------------------------------------------------|


E14-11-12---------------11>12------------------------------------------12-----0------------------|
B--------------------12------------------------------------------------12-----0------------------|
G----------------13-------------------------11>13-11-------------13-----------1------------------|
D-------------14-----------------13>14-14-------------14-14-14----------------2------------------|
A-----------------------------------------------------------------------------2------------------|
E-----------------------------------------------------------------------------0------------------|

Note:  > = slide note up,  < = slide note down

This goes nicely with the Shadows version of Cavatina. The fingering may not be the most 
but it works OK and, with judicious use of a bit of tremelo and sliding of notes it's 
passable.  Enjoy......