Song name
# A B C D E F G H I J K L M N O P Q R S T U V W X Y Z

Mykola Leontovych - Carol Of The Bells tab

Carol of the Bells
This whole song can be played by 3 guitars minimum or up to 5 guitars depending on how 
full you want it to sound. Let me know what you think! Please post comments or 
corrections if I'm wrong! Enjoy it! thx! :D

E----------------|
B----------------|
G---0------------| 2x
D-------3--1--0--|
A----------------|
E----------------|

E---------------|---------------|
B---------------|---3--1--3-----|
G---3--2--0--3--|------------3--|
D---------------|---------------|
A---------------|---------------|
E---------------|---------------|

E---3--3--1-----------------------------------------|
B------------4--3--3--1-----------------------------|
G------------------------3--1--1--3--1--3--2--0--3--|
D---------------------------------------------------|
A---------------------------------------------------|
E---------------------------------------------------|

E---------------------------------|
B---------------------1--3--1-----|
G------------0--2--3-----------3--|
D---0--2--4-----------------------| repeat second measure
A---------------------------------|
E---------------------------------|
Tap to rate this tab
# A B C D E F G H I J K L M N O P Q R S T U V W X Y Z