Song name
# A B C D E F G H I J K L M N O P Q R S T U V W X Y Z

Mymp - Get Me tab

Get me by MYMP
Tabbed by Dave Javier

Solo: (timing lang kailangan ha..)
E|----------------------------------14-16-18-16-14-16-18-16-14-|
B|-------------------------14b-14--14-14-14-14-14-14-14-14-14--|
G|-------11~-13b-11h13-13b-------------------------------------|
D|--11h12------------------------------------------------------|
A|-------------------------------------------------------------|
E|-------------------------------------------------------------|

                           ************************************
E|-------------------------13h14p13----------------------------|
B|-14b-14b-12h14v--16-14-16--------16-14p12p11h12--------------|
G|------------------------------------------------11h13p10h14--|
D|-------------------------------------------------------------|
A|-------------------------------------------------------------|
E|-------------------------------------------------------------|

Until dun sa may (****) 100% yun, sa may (****) not really sure mga 80% di ko na makuha 
sa may kanta na, mahina na yung lead guitar. 


(dave_javier17@yahoo.com)
For comments
Tap to rate this tab
# A B C D E F G H I J K L M N O P Q R S T U V W X Y Z