Mymp - Kailan chords

Highlighted       Show chord diagrams
Song         : Kailan
Artist       : MYMP

-CAPO ON 1ST FRET-

Intro:
        BbM7        C          Am          Dm7   ,   C
E|-1-----1------0-----0------0------0-----------1-------0--|
B|-----3---3-t------1---1-t--1----1---1--t------1-------1--|
G|---2-------a----0-------a--2--2--------a----2------0--0--|
D|-----------p------------p--2-----------p--0--------------|
A|-1------------3------------0---------------------3-------|
E|---------------------------------------------------------|

     BbM7          Em           Dsus2    A7
E|---------1---------0-------------0-----0------X--------|
B|-------3---t-----0---0--t------3---3---2---t--X--------|
G|-----2-----a------------a--------------0---a--3--------|
D|---3-------p------------p---0----------2---p--3--------|
A|-1-------------------------------------0------1--------|
E|--------------0----------------------------------------|

Verse 1:

F                   F/BbM7 	
Bakit kaya nangangamba

	F                        Dm7
Sa tuwing ika'y nakikita

        C	,Fm      BbM7  
Sana nama'y magpakilala

Gm                  Gm
Ilang ulit nang nagkabangga

       Gm               Gm
Aklat kong dala'y pinulot mo pa

         C          F
Di ka pa rin nagpakilala


Refrain:

      BbM7          C         Am
Bawat araw sinusundan  di ka naman  tumiti- 
 
Dm7,  C ,	  BbM7        Em       Dsus2   A7
ngin anung aking      dapat    gawin


Verse 2: (The same in verse 1)

F                 F/BbM7   
Bakit kaya umiiwas

        F                   Dm7
Binti ko ba'y mayroong gasgas

	C,Fm        BbM7
Nais ko nang magpakilala

Gm                 Gm
Dito'y meron sa puso ko

     Gm                  Gm
Munting puwang laan sayo

            C          F
Maaari na ba'ng magpakilala


Refrain:

      BbM7          C         Am
Bawat araw sinusundan  di ka naman  tumiti- 
 
Dm7,  C ,	  BbM7        Em       Dsus2   A7
ngin anung aking      dapat    gawin


Chorus:
        
       Dm7            Gm                           C
Kailan- - - -  - -           kailan mo ba mapapansin

     F              BbM7,  C  , Am  , Am     Dm7
Ang aking lihim    Kahit anung gawing lam  - bing


      BbM7         A7
Di mo napapansin

       Dm7            Gm                           C
Kailan------             kailan hahaplusin ang pusong

      F             BbM7 , C   ,  Am ,  Am  , Dm7
bitin na bitin      Kahit anong gawing  lam - bing

      BbM7         A7
Di mo napapansin


-adlib-

Verse2 last part
Refrain
Chorus
Tap to rate this tab
 
# A B C D E F G H I J K L M N O P Q R S T U V W X Y Z