Song name
# A B C D E F G H I J K L M N O P Q R S T U V W X Y Z

N-dubz - Number 1 tab

Dead easy .... standard tuning

Intro
e--------------------------|---------------------------|
B--------------------------|---------------------------|
G--12-----12-----------12--|--13-----13------------13--|
D-----13------------13-----|-----13-------------13-----|
A--------------------------|---------------------------|
E--------------------------|---------------------------|

e--------------------------|---------------------------|
B--------------------------|---------------------------|
G--12-----12-----------12--|--10-----10------------10--|
D-----13------------13-----|-----12-------------12-----|
A--------------------------|---------------------------|
E--------------------------|---------------------------|

Verse
+ Chorus
e----------------------|----------------------|
B----------------------|----------------------|
G--5----5----5----5----|--8----8----8----8----|
D--5----5----5----5----|--8----8----8----8----|
A--3----3----3----3----|--6----6----6----6----|
E----------------------|----------------------|

e----------------------|----------------------|
B----------------------|----------------------|
G--5----5----5----5----|----------------------|
D--5----5----5----5----|--8----8----8----8----|
A--3----3----3----3----|--8----8----8----8----|
E----------------------|--6----6----6----6----|


Every so often during the verse you may put in this

e----------------------|
B----------------------|
G----------------------|
D--13--12--11----------|
A----------------------|
E----------------------|

have fun!!!!!
Tap to rate this tab
# A B C D E F G H I J K L M N O P Q R S T U V W X Y Z