Guitaretab - guitar tabs
Song name
# A B C D E F G H I J K L M N O P Q R S T U V W X Y Z

Nacha Pop - La Chica De Ayer tab

|---------------2-2--|------------------7-8-7---------|---------------------------|-7-----------------------------|
|------------3--3-3--|--7--8--12-8--7----------8-8-8-|---------------------------|-8-----------------------------|
|-----0------2-------|--7--9--12-9--7-----------------|---------------------------|----7h9-7h9--77h9--7---7--7s9-|
|---2----------------|--------------------------------|---------------------------|-------------------------------|
|-3----3---2---------|--------------------------------|-2s5--5-5--3-2----2s3--3-3-|-------------------------------|
|--------------------|--------------------------------|---------------3-----------|-------------------------------|

[ Tab from: http://www.guitaretab.com/n/nacha-pop/75427.html ]
|--------------------------------10--|--7----------|----------------|
|-----8---10b12r10p8-10----10s12-----|--8-8--------|----------------|
|--9--------------------9------------|------7--5-4-|-----------7--7-|
|------------------------------------|---------7-5-|-----57s9------|
|------------------------------------|-------------|-5s7------------|
|------------------------------------|-------------|----------------|


|--------------10--10-|-------12---15-12----12-----------------------------------|--7----------7------------------------|
|-----810s12----12---|--10/12--12-------15----15--12--12------------------------|--8----------8------------10b12b128-|
|-7-9-----------------|------------------------------14--14b1614p12-14p12---12-|----97p9--7---7p9-7p9-7--------------|
|---------------------|----------------------------------------------------14----|--------------------------------------|
|---------------------|----------------------------------------------------------|--------------------------------------|
|---------------------|----------------------------------------------------------|--------------------------------------|
Related for La Chica De Ayer tab