Song name
# A B C D E F G H I J K L M N O P Q R S T U V W X Y Z

Naive New Beaters - Jersey tab

Intro :
e----------------------------------------------------------------------|
b----------------------------------------------------------------------|
g--9-9-9--7-7-7--------------------------------------------------------|
d--9-9-9--7-7-7-9-9-9---10-9-7-----------------------------------------|
a---------------9-9-9----------10-9------------------------------------|
e----------------------------------------------------------------------|

Chords :

Em - D - Bm

At the end of the Bm make the riff :
e--------------|
b--------------|
g--------------|
d--------------|
a--3-2---------|
e------5-3-2---|

This my first tab so it isn't perfect !
Tap to rate this tab
# A B C D E F G H I J K L M N O P Q R S T U V W X Y Z