Song name
# A B C D E F G H I J K L M N O P Q R S T U V W X Y Z

Naked Raygun - Treason tab

Tuning:Eflat, key of A minor
intro, verse
e|-----------------------------------------------------------------------------|
B|-----------------------------------------------------------------------------|
G|---7-------------------------------------------------------------------------|
D|-5---5-4-(4)--several times, then--4/5-7(7)----------------------------------|
A|-----------------------------------------------------------------------------|
E|-----------------------------------------------------------------------------|
rhythm under verse lead
e|---------------------------------------------------------------------------|
B|---------------------------------------------------------------------------|
G|---------------------------------------------------------------------------|
D|---------------------------------------------------------------------------|
A|--7------------------------------------------------------------------------|
E|--5------------------------------------------------------------------------|
chorus
e|---------------------------------------------------------------------------|
B|---------------------------------------------------------------------------|
G|---------------------------------------------------------------------------|
D|---------------------------------------------------------------------------|
A|-77-555-33-333-33-333-1010-101010------------------------------------------|
E|-55-333-11-111-11-111-8-8--8-8-8-------------------------------------------|
solo A minor
e|-----------------------------------------------------------------------------|
B|-----------------------------------------------------------------------------|
G|-7^7^7^7^7^7^7^7^7^7^5~~-then a lot of repeating licks-----------------------|
D|-----------------------------------------------------------------------------|
A|-----------------------------------------------------------------------------|
E|-----------------------------------------------------------------------------|
Tap to rate this tab
# A B C D E F G H I J K L M N O P Q R S T U V W X Y Z