Guitaretab - guitar tabs
Song name
# A B C D E F G H I J K L M N O P Q R S T U V W X Y Z

Narciso Yepes - Forbidden Games tab

this tab is by request 
visit this site at http://youtube.com/watch?v=xXLiqQ8t43M
to hear more about the tab ^^ thank you!


part                            I

e|--7-----7-----7-----|-7------5-----3-----|-3-----2-----0------|
b|----0-----0-----0---|---0------0-----0---|---0-----0-----0----|
g|------0-----0-----0-|-----0------0-----0-|-----0-----0-----0--| 
D|--------------------|--------------------|--------------------|
A|--------------------|--------------------|--------------------|
E|--0-----------------|-0------------------|-0------------------|

e|--0-----2-----7-----|-12-----12-----12-----|-12-----10-----8-----|
b|----0-----0-----0---|----0------0------0---|----0------0-----0---|
g|------0-----0-----0-|------0------0------0-|------0------0-----0-| 
D|--------------------|----------------------|---------------------|
A|--------------------|----------------------|---------------------|
E|--0-----------------|-0--------------------|-0-------------------|

e|--8-----7-----5-----|-5-----7-----8-----|-7-----8-----7-----|
b|----5-----5-----5---|---5-----5-----5---|---7-----7-----7---|
g|------5-----5-----5-|-----5-----5-----5-|-----8-----8-----8-| 
D|--------------------|-------------------|-------------------|
A|--------------------|-------------------|-------------------|
E|--5-----------------|-5-----------------|-7-----------------|

e|--11-----8-----7-----|-7-----5-----3-----|-3-----2-----0-----|
b|-----7-----7-----7---|---0-----0-----0---|---0-----0-----0---|
g|-------8-----8-----8-|-----0-----0-----0-|-----0-----0-----0-| 
D|---------------------|-------------------|-------------------|
A|---------------------|-------------------|-------------------|
E|--7------------------|-0-----------------|-0-----------------|
[ Tab from: http://www.guitaretab.com/n/narciso-yepes/95976.html ]
e|--2-----2-----2-----|-2-----3-----2-----|-0-----0-----------|
b|----1-----1-----1---|---0-----0-----0---|---0-----0---------|
g|------2-----2-----2-|-----2-----2-----2-|-----0-----0---0---| 
D|--------------------|-------------------|-------------------|
A|--0-----------------|-2-----------------|-2-----------------|
E|--------------------|-------------------|-------------3---0-|

repeat I

part   			       II

e|--4-----4-----4-----|-4-----2-----0-----|-------------------|
b|----0-----0-----0---|---0-----0-----0---|-5-----4-----2-----|
g|------1-----1-----1-|-----1-----1-----1-|---2-----2-----2---| 
D|--------------------|-------------------|-----4-----4-----4-|
A|--------------------|-------------------|-------------------|
E|--0-----------------|-0-----------------|-2-----------------|


e|-------------------|-9-----9-----9-----|-9-----11-----9-----|
b|-4-----2-----4-----|---7-----7-----7---|---7------7-----7---|
g|---2-----2-----2---|-----8-----8-----8-|-----8------8-----8-| 
D|-----4-----4-----4-|-------------------|--------------------|
A|-------------------|-------------------|--------------------|
E|-2-----------------|-7-----------------|-7------------------|


e|--9-----7-----6-----|-7-----9-----11-----|-12-----12-----12-----|
b|----9-----9-----9---|---9-----9------9---|----9------9------9---|
g|------8-----8-----8-|-----8-----8------8-|------9------9------9-| 
D|--------------------|--------------------|----------------------|
A|--------------------|--------------------|----------------------|
E|--0-----------------|-0------------------|-0--------------------|


e|--12-----11-----10-----|-9------9------9------|-9------7-----5-----|
b|-----9------9------9---|---10-----10-----10---|---10-----5-----5---|
g|-------9------9------9-|------9------9------9-|------9-----5-----5-| 
D|-----------------------|----------------------|--------------------|
A|-----------------------|-0--------------------|-0------------------|
E|--0--------------------|----------------------|--------------------|


e|--4-----4-----4-----|-4-----5-----2-----|-0----------------------|
b|----0-----0-----0---|---0-----0-----0---|---0--------------------|
g|------2-----2-----2-|-----2-----0-----0-|-----1---1-------1------| 
D|--------------------|-------------------|-2----------------------|
A|--2-----------------|-2-----------------|-------2----------------|
E|--------------------|-------------------|-------------3-------0--|


repeat I and II

thats all guys!

Advertisement will be closed in 10 seconds