Song name
# A B C D E F G H I J K L M N O P Q R S T U V W X Y Z

Nasum - Think tab

Help us improve GuitareTab! Take a short survey!
Band: Nasum
Album: Blind World
Song: Think
Copyright (c) Poserslaugher Records - 1993

Tab Written On - April 9th, 2007

Transcribed By: Jordan J.
Email: spotlight_72@hotmail.com

Legend:
\  - slide down to
/ - slide up to

Tuning: Drop D:
(D A D G B E)

E|------------------------------|
B|------------------------------|
G|------------------------------|  x 6 (slide the 3/2 every now and then)
D|------------------------------|
A|-0--0-0--3--2--1--0---0--0-0--3--2--6--0-------|
D|-0--0-0--3--2--1--0---0--0-0--3--2--6--0--------|

E|--------------|
B|--------------|
G|--------------|
D|--------------|
A|-2/15\2-------|
D|-2/15\2-------|

E|-------------------------------------|
B|-------------------------------------|
G|-------------------------------------| X 4
D|-------------------------------------|
A|-------------------------------------|
D|-7-7-6-6-7-7-6-6--2-2-3-3-2-2-3-3----|

E|--------------------------------------------|
B|--------------------------------------------|
G|--------------------------------------------|
D|--------------------------------------------|  x 4 (go psycho!)
A|--------------------------------------------|
D|-7777-6666-7777-6666--2222-3333-2222-3333---|

E|-----------------------------------------------------------|
B|-----------------------------------------------------------|
G|-----------------------------------------------------------|
D|-----------------------------------------------------------| X 4
A|-0-0--0-0-0--0--1-1-1--6-6-6--0-0--0-0-0--0--1-1-1--7-7-7--|
D|-0-0--0-0-0--0--1-1-1--6-6-6--0-0--0-0-0--0--1-1-1--7-7-7--|

E|--------------------------------------------|
B|--------------------------------------------|
G|--------------------------------------------|
D|--------------------------------------------|  x 4 (let the pick fly!)
A|--------------------------------------------|
D|-7777-6666-7777-6666--2222-3333-2222-3333---|


Finished...

Tons of fast picking, but get used to it, it's Nasum ;) .

Nasum = Kings Of Grind!

- Jordo.
Related for Think tab