Song name
# A B C D E F G H I J K L M N O P Q R S T U V W X Y Z

Natasha Thomas - Skin Deep tab

This 100% correct 

Verse:

e|--------------------------------------12----------|
B|--------------------------------------------------|
G|-------11----------7------------------------------|
D|----11----11-----7--------7-------9---------------|
A|--9------------5--------7------7------------------|
E|----------------------5---------------------------|



Chrous:

Strum the chords

   F#m        D       A      E       

e|--------------------5------------------|
B|--10--------7-------5-------9----------|
G|--11--------7-------6-------9----------|
D|--11--------7-------7-------9----------|
A|--9-(x4)----5(x6)---7-------7(x6)------|
E|--------------------5(x6)--------------|
Tap to rate this tab
 
# A B C D E F G H I J K L M N O P Q R S T U V W X Y Z