Song name
# A B C D E F G H I J K L M N O P Q R S T U V W X Y Z

Natty - Revolution tab

Capo 3rd

E[----------------------------------------------------------------------|
A[----3--------3-----3--------0-----0-----0-----------------------------|
D[-------2-----------------0-----2-----2--------------------------------|
G[----------0-----2-----2--------2-----2-----2--------------------------|
B[----------1-----1-----1--------------------1--------------------------|
e[----------------------------------------------------------------------|

E[----------------------------------------------------------------------|
A[----3--------3-----3-----0--------0-0-----0---------------------------|
D[-------2--------------------2-----------------------------------------|
G[----------0-----2-----2--------2-------2-----0------------------------|
B[----------1-----1-----1--------1-------1------------------------------|
e[----------------------------------------------------------------------|

E[----------------------------------------------------------------------|
A[----3--------3-----3--------0-----0-----0-----------------------------|
D[-------2-----------------0-----2-----2--------------------------------|
G[----------0-----2-----2--------2-----2-----2--------------------------|
B[----------1-----1-----1--------------------1--------------------------|
e[----------------------------------------------------------------------|

E[-----------------------------------|
A[-----3--------3--2--------0--------|
D[--------2-----------0--------------|
G[-----------0-----------0-----------|
B[-----------1-----------1-----------|
e[-----------------------------------|
Tap to rate this tab
 
# A B C D E F G H I J K L M N O P Q R S T U V W X Y Z