Guitaretab - guitar tabs
Song name
# A B C D E F G H I J K L M N O P Q R S T U V W X Y Z

Nazareth - Morning Dew tab

#This file is the author's own work and represents their interpretation of the-#
#song. You may only use this file for private study, scholarship, or research.-#

Nazareth - Morning Dew.   Tabbed by Jura Bartonek (Jago syn Jungle) from Czech Republic. 1.12.05. 
This is my sevnth tab. 

  0:14      0:30      VERSE 1- 0:38
e[-12-----*-19------*-------------------------------------15---------------]
B[---12---*---19----*------------------------------------------------------]
G[-----12-*-----19--*-5-5/12-12/14-14-14/12/10-10/12-14--------------------]
D[--------*---------*------------------------------------------------------]
A[--------*---------*------------------------------------------------------]
E[--------*---------*------------------------------------------------------] 

  1:10                                                        1:43
e[------------------------------------15--------------------------------
B[----------------------------------------------------------------------
G[----------------------------------------------------------------------
D[----------------------------------------------------------------------
A[-0/1--/4/3--0/1--/4/3--3/4/6/8/10------/4/3--3/4/6/8/10-/11/10/8/10---
E[---------------------------------------------------------------------- 

15/16/13/15--15/16/13/15--15/16/13/15--15/13/16--/13/15/16/18/20----]
--------------------------------------------------------------------]
--------------------------------------------------------------------]
--------------------------------------------------------------------]
------------------------------------------------------------------3/]
--------------------------------------------------------------------]
[ Tab from: http://www.guitaretab.com/n/nazareth/140637.html ]
VERSE1 -2:42   3:33  
e[---------*-----------------------------------------------------------------]
B[---------*-----------------------------------------------------------------]
G[---------*-----------------------------------------------------------------]
D[---------*-----------------------------------------------------------------]
A[---------*--0/3--3/4/1/4/6/8/10/-----0/3--3/4/1/4/6/8/10-------------------]
E[---------*-----------------------------------------------------------------] 

  SOLO:4:24                                                      
e[---------------------------------------------------------------
B[-6/8--8-8-8/6--6-6-8-10-8----6/8-8-8/6-/5/6/5/6/5/6/5/6-5-6----
G[-----------------------------------------------------------5---
D[---------------------------------------------------------------
A[---------------------------------------------------------------
E[--------------------------------------------------------------- 

4:39                                                            
-6/8-/8/8/8/8-6/5/6/5/6/5-6-5----6/8-/8/8/8/8-6--6-8-6-5-6--8/-]
------------------------------8--------------------------------]
---------------------------------------------------------------]
---------------------------------------------------------------]
---------------------------------------------------------------]
---------------------------------------------------------------]

e[-/8/11------------------------------------------8------------------------------------]
B[-/7/11-----------6/8-6/8--8-8/6-5-6-5-------6/8--8-6-8-6-5-6-5-----------------------]
G[-------------------------------------5-----------------------------------17/15--14/12]
D[--------------------------------------------------------------3/5-----17-17/15--14/12]
A[--------1/3-/10/8--------------------------------------------------------------------]
E[-------------------------------------------------------------------------------------] 

  Sorry I donīt have any more.But I look on it..sometimes :-)
Related for Morning Dew tab
Morning Dew chords by Nazareth