Song name
# A B C D E F G H I J K L M N O P Q R S T U V W X Y Z

Neil Zaza - I Spy tab

This song is called I spy from the cd starring at the sun

-------------|
-------------|
-------------|
-------------|
-----5-------|
-5-8---1-2-3-|

-------------|
-------------|
-------------|
-----------5-|
-----5-6-7---|
-5-8---------|

-------------|
-------------|
-------------|
-------------|
-----5-------|
-5-8---1-2-3-|

-------------|
-------------|
-------------|
-------------|
-----5-4-3---|
-5-8---------|

Anyway, this is my first tab. Its an easy and fun song to play. enjoy
Tap to rate this tab
# A B C D E F G H I J K L M N O P Q R S T U V W X Y Z