Song name
# A B C D E F G H I J K L M N O P Q R S T U V W X Y Z

Nemesea - Its Over tab

Song:   Its over
Band:   Nemesea
Album:  The Quiet Resistance
Tuning: Drop D [DADGBE]
 "This is Probably the first ever Nemesea tab on UG"


Intro Riff:[0:10-0:20]
------------------------------------|
------------------------------------|
-4~-----4---------------------------|
-4~-444-4--4~-4~--5~-----5--7~-7----| [x2]
-2~-222-2--4~-4~--5~-555-5--7~-7----|
-----------4~-4~--5~-555-5--7~-7----|
    ...              ...



Verse:[0:20-0:40]
Only Piano Is being played at the background
You can play B,F#,G,A on the verse( Depends if you want too)


Verse(Distorted-Palm Mute):[0:40-1:00]
------------------------------------------------------|
------------------------------------------------------|
------------------------------------------------------|
-5------4------7------9-------5------4------7---------|
-5[x16]-4[x16]-7[x16]-9[x16]--5[x16]-4[x16]-7[x16]----|
-5------4------7------9-------5------4------7---------|
 .      .      .      .       .      .      .



Intro Riff:[1:00-1:10]
------------------------------------|
------------------------------------|
-4~-----4---------------------------|
-4~-444-4--4~-4~--5~-----5--7~-7----| [x2]
-2~-222-2--4~-4~--5~-555-5--7~-7----|
-----------4~-4~--5~-555-5--7~-7----|
    ...              ...




Chorus[1:10-1:30]
The Rhythm is pretty easy to figure out :D
---------------------------------|
---------------------------------|
---------------------------------|
-9---7---5---7---9---7---5---4---|
-9---7---5---7---9---7---5---4---|
-9---7---5---7---9---7---5---4---|


Verse:[1:30-1:50]
Only Piano Is being played at the background

Repeat Verse(Distorted-Palm Mute):[1:50-2:10]
Repeat Intro Riff:[2:10-2:20]
Repeat Chorus:[2:20-2:40]


Solo: NO IDEA WHATS BEING PLAYED OVER THERE
Rhythm Over the solo:[2:40-3:10]
----------------------------------------------------------|
----------------------------------------------------------|
----------------------------------------------------------|
-4444-4444-44--4444-4444-5-7--4444-4444-44-4444-4444-5-4--| [x3]
-4444-4444-44--4444-4444-5-7--4444-4444-44-4444-4444-5-4--|
-4444-4444-44--4444-4444-5-7--4444-4444-44-4444-4444-5-4--|

Vocals[3:10-3:20]
Guitar Part comes in at 3:17

----------------------|
----------------------|
----------------------|
-5555-55/77777--------|
-5555-55/77777--------|
-5555-55/77777--------|

Repeat Chorus:[3:20-3:43]
Repeat Intro:[3:43-3:53] End it with a slide to 9th Fret

Enjoy :D
http://www.nemesea.com/
Tap to rate this tab
 
# A B C D E F G H I J K L M N O P Q R S T U V W X Y Z