Song name
# A B C D E F G H I J K L M N O P Q R S T U V W X Y Z

Neon Indian - Polish Girl chords

Highlighted       Show chord diagrams
Intro: Am - G - F - G - Em - F

-------8---------|
--8-10--------10-|
----------7-9----|
-----------------|
-----------------|
-----------------|

Am                         G
It's been at least another year

                                       F
And still I haven't got the chance to say

         G
Always rolling off the tongue

       Em                            F
Never said but nearly sung about a million ways

Am                     G
Every photograph and story

                              F
Trickled through the lengthy web of friends

G
I overthought but understood

  Em
Distant look but looking good

            F
And not the other way

     Am     G             F
But you, yoouu fail to remember

G      Em             F
You, youu fail to remember

Dm           Em                 C-G
Do I still cross your mind?

Dm                  Em
Your face still distorts the time

bridge: Am - G - F - G - Em - F

---5/10-8-----8/15--12----8/10/8-------------|
--5--------10----------10---------8/10/8--10-|
-5-------------------------------------------|
---------------------------------------------|
---------------------------------------------|
---------------------------------------------|

verse and chorus pattern repeats after that
Tap to rate this tab
# A B C D E F G H I J K L M N O P Q R S T U V W X Y Z