Song name
# A B C D E F G H I J K L M N O P Q R S T U V W X Y Z

Neve - Its Over Now tab

This is my first tab and i practice this song all the time and i m pretty sure its correct enjoy!!!!!

                          ITS OVER NOW


you will figure out the struming during the song here are the chords
intro: repeat 3x
chords= CA99         G            Dm
e|-------3-----------3------------1---------------3------------|
B|-------3-----------3------------3---------------1------------|
G|--------------------------------2----------------------------|
D|-------2----------------------------------------3------------|
A|-------3-----------------------------------------------------|
E|-------------------2-----------------------------------------|


the rest of the verses and chorus ( play as a bar cord)
guitar 1
e|-------3----------3-------------5---------------1------------|
B|-------4----------3-------------6---------------1------------|
G|-------5----------4-------------7---------------3------------|
D|-------5----------5-------------7---------------3------------|
A|-------3----------5-------------5---------------1------------|
E|-------3----------3-------------5---------------1------------|


thatz it pretty simple huh thanks for reading my tab hoped u liked it
Tap to rate this tab
# A B C D E F G H I J K L M N O P Q R S T U V W X Y Z