Song name
# A B C D E F G H I J K L M N O P Q R S T U V W X Y Z

Never See Tomorrow - 1000 Miles tab

NEVER SEE TOMORROW
1000 MILES


Lead





                                                
       E                  E   E   E  E   E  E  E     E  E  E  E  Q    E  E   
C#||----------------------------------------------|-------------------------|
G#||----------------------------------------------|-------------------------|
E ||----------------------------------------------|-------------------------|
B ||--12------------------0--12--11--0--11--7--0--|--7--0--7--0--4----2--0--|
F#||----------------------------------------------|-------------------------|
B ||----------------------------------------------|-------------------------|





   E  E   E   E  E   E  E  E     E  E  E  E  E  E  E  E   
------------------------------|--------------------------|
------------------------------|--------------------------|
------------------------------|--------------------------|
--12--0--12--11--0--11--7--0--|--7--0--7--0--2--4--2--0--|
------------------------------|--------------------------|
------------------------------|--------------------------|





   E  E   E   E  E   E  E  E     E  E  E  E  Q    E  E   
------------------------------|-------------------------|
------------------------------|-------------------------|
------------------------------|-------------------------|
--12--0--12--11--0--11--7--0--|--7--0--7--0--4----2--0--|
------------------------------|-------------------------|
------------------------------|-------------------------|





  E  E  E  E  E  E  Q       Q    H        Q       E  E  E  E  Q    Q     
-------------------------|---------------------|------------------------|
-------------------------|---------------------|------------------------|
-------------------------|---------------------|------------------------|
--4--2--0--4--2--0--7----|--L----2-------------|------------------------|
-------------------------|---------------------|--0--0--0--0------------|
-------------------------|---------------------|--0--0--0--0------------|





  E  E  E  E  Q    Q       E  E  E  E  Q    Q       E  E  E  E  Q    Q     
------------------------|------------------------|------------------------|
------------------------|------------------------|------------------------|
------------------------|------------------------|------------------------|
------------------------|------------------------|------------------------|
--0--0--0--0------------|--0--0--0--0------------|--0--0--0--0------------|
--0--0--0--0------------|--0--0--0--0------------|--0--0--0--0------------|





   E  E   E   E  E   E  E  E     E  E  E  E  Q    E  E   
------------------------------|-------------------------|
------------------------------|-------------------------|
------------------------------|-------------------------|
--12--0--12--11--0--11--7--0--|--7--0--7--0--4----2--0--|
------------------------------|-------------------------|
------------------------------|-------------------------|





   E  E   E   E  E   E  E  E     E  E  E  E  E  E  E  E   
------------------------------|--------------------------|
------------------------------|--------------------------|
------------------------------|--------------------------|
--12--0--12--11--0--11--7--0--|--7--0--7--0--2--4--2--0--|
------------------------------|--------------------------|
------------------------------|--------------------------|





  E  E  E  E  Q    Q       E  E  E  E  Q    Q       E  E  E  E  Q    Q     
------------------------|------------------------|------------------------|
------------------------|------------------------|------------------------|
------------------------|------------------------|------------------------|
------------------------|------------------------|------------------------|
--0--0--0--0------------|--0--0--0--0------------|--0--0--0--0------------|
--0--0--0--0------------|--0--0--0--0------------|--0--0--0--0------------|





  E  E  E  E  Q    Q        E  E   E   E  E   E  E  E   
------------------------|------------------------------|
------------------------|------------------------------|
------------------------|------------------------------|
------------------------|--12--0--12--11--0--11--7--0--|
--0--0--0--0------------|------------------------------|
--0--0--0--0------------|------------------------------|





  E  E  E  E  Q    E  E      E  E   E   E  E   E  E  E   
-------------------------|------------------------------|
-------------------------|------------------------------|
-------------------------|------------------------------|
--7--0--7--0--4----2--0--|--12--0--12--11--0--11--7--0--|
-------------------------|------------------------------|
-------------------------|------------------------------|





  E  E  E  E  E  E  E  E     E  E  E  E  E  E  E  E     W                 
--------------------------|--------------------------|-------------------|
--------------------------|--------------------------|-------------------|
--------------------------|--------------------------|-------------------|
--7--0--7--0--2--4--2--0--|--------------------------|-------------------|
--------------------------|--0--0--0--4--4--4--2-----|-------------------|
--------------------------|--0--0--0--4--4--4--2-----|-------------------|





  E  E  E  E  E  E  E  E     W                   E  E  E  E  E  E  E  E   
--------------------------|-------------------|--------------------------|
--------------------------|-------------------|--------------------------|
--------------------------|-------------------|--------------------------|
--------------------------|-------------------|--------------------------|
--0--0--0--4--4--4--2-----|-------------------|--0--0--0--4--4--4--2-----|
--0--0--0--4--4--4--2-----|-------------------|--0--0--0--4--4--4--2-----|





  W                   W                   W                 
-------------------|-------------------|-------------------|
-------------------|-------------------|-------------------|
-------------------|--7----------------|--9----------------|
-------------------|-------------------|-------------------|
-------------------|--5----------------|--7----------------|
-------------------|-------------------|-------------------|





    Q    Q    Q    Q       Q    Q    Q    Q       Q    Q    Q    Q     
|-----------------------|----------------------|----------------------|
|-----------------------|----------------------|----------------------|
|*--6----7--------------|--6----7--------------|--6----7--------------|
|*------------7---------|------------7---------|------------7---------|
|-----------------------|----------------------|----------------------|
|-----------------------|----------------------|----------------------|





  Q    Q     Q    Q         Q    Q    Q    Q       Q    Q    Q    Q     
------------------------||----------------------|----------------------|
------------10----------||----------------------|----------------------|
--6----7---------------*||--6----7--------------|--6----7--------------|
-----------------------*||------------7---------|------------7---------|
------------------------||----------------------|----------------------|
------------------------||----------------------|----------------------|





  Q    Q    Q    Q       Q    Q     Q    Q       H        Q     Q     
----------------------|-----------------------|----------------------|
----------------------|------------10---------|----------------------|
--6----7--------------|--6----7---------------|--7--------L----11----|
------------7---------|-----------------------|----------------------|
----------------------|-----------------------|--5--------L-----9----|
----------------------|-----------------------|----------------------|





  H        H           E  E  E  E  E  E  E  E     E  E  E  E  E  E  E  E   
--------------------|--------------------------|--------------------------|
--------------------|--------------------------|--------------------------|
--L--------9--------|--------------------------|--------------------------|
--------------------|--------------------------|--------------------------|
--L--------7--------|--7--7--7--7--7--7--7--7--|--7--7--7--7--7--7--7--7--|
--------------------|--------------------------|--------------------------|





   E  E   E   E  E   E  E  E     E  E  E  E  Q    E  E   
------------------------------|-------------------------|
------------------------------|-------------------------|
------------------------------|-------------------------|
--12--0--12--11--0--11--7--0--|--7--0--7--0--4----2--0--|
------------------------------|-------------------------|
------------------------------|-------------------------|




   E  E   E   E  E   E  E  E     E  E  E  E  E  E  E  E   
------------------------------|--------------------------|
------------------------------|--------------------------|
------------------------------|--------------------------|
--12--0--12--11--0--11--7--0--|--7--0--7--0--2--4--2--0--|
------------------------------|--------------------------|
------------------------------|--------------------------|





   E  E   E   E  E   E  E  E     E  E  E  E  Q    E  E   
------------------------------|-------------------------|
------------------------------|-------------------------|
------------------------------|-------------------------|
--12--0--12--11--0--11--7--0--|--7--0--7--0--4----2--0--|
------------------------------|-------------------------|
------------------------------|-------------------------|





                      W               W               
  E  E  E  E  E  E    Q        Q      H         Q     
----------------------------|------------------------|
----------------------------|------------------------|
--------------------<>2b----|------------------------|
--4--2--0--4--2--0----------|-------<>2b-------------|
----------------------------|------------------------|
----------------------------|------------------------|





  E  E  E  E  E  E  E  E     E  E  E  E  E  E  E  E   
--------------------------|--------------------------|
--------------------------|--------------------------|
--------------7--7--7--7--|--------------9--9--9--9--|
--------------------------|--------------------------|
--0--0--0--0--5--5--5--5--|--0--0--0--0--7--7--7--7--|
--0--0--0--0--------------|--0--0--0--0--------------|





  E  E  E  E   E   E   E   E     E  E  E  E   E   E   E   E   
------------------------------|------------------------------|
------------------------------|------------------------------|
--------------11--11--11--11--|--------------12--12--12--12--|
------------------------------|------------------------------|
--0--0--0--0---9---9---9---9--|--0--0--0--0--10--10--10--10--|
--0--0--0--0------------------|--0--0--0--0------------------|





   E  E   E   E  E   E  E  E     E  E  E  E  Q    E  E   
------------------------------|-------------------------|
------------------------------|-------------------------|
------------------------------|-------------------------|
--12--0--12--11--0--11--7--0--|--7--0--7--0--4----2--0--|
------------------------------|-------------------------|
------------------------------|-------------------------|





   E  E   E   E  E   E  E  E     E  E  E  E  E  E  E  E   
------------------------------|--------------------------|
------------------------------|--------------------------|
------------------------------|--------------------------|
--12--0--12--11--0--11--7--0--|--7--0--7--0--2--4--2--0--|
------------------------------|--------------------------|
------------------------------|--------------------------|





  E  E  E  E  E  E  E  E     E  E  E  E  E  E  E  E   
--------------------------|--------------------------|
--------------------------|--------------------------|
--------------7--7--7--7--|--------------9--9--9--9--|
--------------------------|--------------------------|
--0--0--0--0--5--5--5--5--|--0--0--0--0--7--7--7--7--|
--0--0--0--0--------------|--0--0--0--0--------------|





  E  E  E  E   E   E   E   E     E  E  E  E   E   E   E   E   
------------------------------|------------------------------|
------------------------------|------------------------------|
--------------11--11--11--11--|--------------12--12--12--12--|
------------------------------|------------------------------|
--0--0--0--0---9---9---9---9--|--0--0--0--0--10--10--10--10--|
--0--0--0--0------------------|--0--0--0--0------------------|





   E  E   E   E  E   E  E  E     E  E  E  E  Q    E  E   
------------------------------|-------------------------|
------------------------------|-------------------------|
------------------------------|-------------------------|
--12--0--12--11--0--11--7--0--|--7--0--7--0--4----2--0--|
------------------------------|-------------------------|
------------------------------|-------------------------|





   E  E   E   E  E   E  E  E     E  E  E  E  E  E  E  E   
------------------------------|--------------------------|
------------------------------|--------------------------|
------------------------------|--------------------------|
--12--0--12--11--0--11--7--0--|--7--0--7--0--2--4--2--0--|
------------------------------|--------------------------|
------------------------------|--------------------------|





  E  E  E  E  E  E  E  E     W                   E  E  E  E  E  E  E  E   
--------------------------|-------------------|--------------------------|
--------------------------|-------------------|--------------------------|
--------------------------|-------------------|--------------------------|
--------------------------|-------------------|--------------------------|
--0--0--0--4--4--4--2-----|-------------------|--0--0--0--4--4--4--2-----|
--0--0--0--4--4--4--2-----|-------------------|--0--0--0--4--4--4--2-----|





  W                   E  E  E  E  E  E  E  E     W                 
-------------------|--------------------------|-------------------|
-------------------|--------------------------|-------------------|
-------------------|--------------------------|-------------------|
-------------------|--------------------------|-------------------|
-------------------|--0--0--0--4--4--4--2-----|-------------------|
-------------------|--0--0--0--4--4--4--2-----|-------------------|





  W                   W                     Q    Q    Q    Q     
-------------------|-------------------||-----------------------|
-------------------|-------------------||-----------------------|
--7----------------|--9----------------||*--6----7--------------|
-------------------|-------------------||*------------7---------|
--5----------------|--7----------------||-----------------------|
-------------------|-------------------||-----------------------|





  Q    Q    Q    Q       Q    Q    Q    Q       Q    Q     Q    Q       
----------------------|----------------------|------------------------||
----------------------|----------------------|------------10----------||
--6----7--------------|--6----7--------------|--6----7---------------*||
------------7---------|------------7---------|-----------------------*||
----------------------|----------------------|------------------------||
----------------------|----------------------|------------------------||





  Q    Q    Q    Q       Q    Q    Q    Q       Q    Q    Q    Q     
----------------------|----------------------|----------------------|
----------------------|----------------------|----------------------|
--6----7--------------|--6----7--------------|--6----7--------------|
------------7---------|------------7---------|------------7---------|
----------------------|----------------------|----------------------|
----------------------|----------------------|----------------------|





  Q    Q     Q    Q       H        Q     Q       H        H         
-----------------------|----------------------|--------------------|
------------10---------|----------------------|--------------------|
--6----7---------------|--7--------L----11----|--L--------9--------|
-----------------------|----------------------|--------------------|
-----------------------|--5--------L-----9----|--L--------7--------|
-----------------------|----------------------|--------------------|





  W                   W                                                         
-------------------|-------------------|-------------------|-------------------|
-------------------|-------------------|-------------------|-------------------|
--L----------------|--L----------------|-------------------|-------------------|
-------------------|-------------------|-------------------|-------------------|
--L----------------|--L----------------|-------------------|-------------------|
-------------------|-------------------|-------------------|-------------------|





                                          Q    Q    E  E  Q     
-------------------|-------------------|-----------------------|
-------------------|-------------------|-----------------------|
-------------------|-------------------|-----------------------|
-------------------|-------------------|-----------------------|
-------------------|-------------------|--0----0-------0--0----|
-------------------|-------------------|--0----0-------0--0----|





  Q    E  E  E  Q    E     E  Q    Q    Q    E     W                 
------------------------|-----------------------|-------------------|
------------------------|-----------------------|-------------------|
------------------------|-----------------------|-------------------|
------------------------|-----------------------|-------------------|
--0-------0--0--0-------|--0--0----0----0----L--|--L----------------|
--0-------0--0--0-------|--0--0----0----0----L--|--L----------------|





  Q    Q    E  E  Q       Q    E  E  E  Q    E     E  Q    Q    Q    E   
-----------------------|------------------------|-----------------------|
-----------------------|------------------------|-----------------------|
-----------------------|------------------------|-----------------------|
-----------------------|------------------------|-----------------------|
--0----0-------0--0----|--0-------0--0--0-------|--0--0----0----0----L--|
--0----0-------0--0----|--0-------0--0--0-------|--0--0----0----0----L--|





  W                   Q    Q    E  E  Q       Q    E  E  E  Q    E   
-------------------|-----------------------|------------------------|
-------------------|-----------------------|------------------------|
-------------------|-----------------------|------------------------|
-------------------|-----------------------|------------------------|
--L----------------|--0----0-------0--0----|--0-------0--0--0-------|
--L----------------|--0----0-------0--0----|--0-------0--0--0-------|





  E  Q    Q    Q    E     W                   Q    Q    E  E  Q     
-----------------------|-------------------|-----------------------|
-----------------------|-------------------|-----------------------|
-----------------------|-------------------|-----------------------|
-----------------------|-------------------|-----------------------|
--0--0----0----0----L--|--L----------------|--0----0-------0--0----|
--0--0----0----0----L--|--L----------------|--0----0-------0--0----|





  Q    E  E  E  Q    E     E  Q    Q    Q    E     W                 
------------------------|-----------------------|-------------------|
------------------------|-----------------------|-------------------|
------------------------|-----------------------|-------------------|
------------------------|-----------------------|-------------------|
--0-------0--0--0-------|--0--0----0----0----L--|--L----------------|
--0-------0--0--0-------|--0--0----0----0----L--|--L----------------|





  W                   W                   W                   W                 
-------------------|-------------------|-------------------|-------------------|
-------------------|-------------------|-------------------|-------------------|
--7----------------|--L----------------|--9----------------|--L----------------|
-------------------|-------------------|-------------------|-------------------|
--5----------------|--L----------------|--7----------------|--L----------------|
-------------------|-------------------|-------------------|-------------------|





   W                   W                    W                 
--------------------|-------------------|--------------------|
--------------------|-------------------|--------------------|
--11----------------|--L----------------|--12----------------|
--------------------|-------------------|--------------------|
---9----------------|--L----------------|--10----------------|
--------------------|-------------------|--------------------|





   W                   Q    Q    Q    Q       Q    Q    Q    Q     
--------------------|----------------------|----------------------|
--------------------|----------------------|----------------------|
--14----------------|--6----7--------------|--6----7--------------|
--------------------|------------7---------|------------7---------|
--12----------------|----------------------|----------------------|
--------------------|----------------------|----------------------|





  Q    Q    Q    Q       Q    Q     Q    Q       Q    Q    Q    Q     
----------------------|-----------------------|----------------------|
----------------------|------------10---------|----------------------|
--6----7--------------|--6----7---------------|--6----7--------------|
------------7---------|-----------------------|------------7---------|
----------------------|-----------------------|----------------------|
----------------------|-----------------------|----------------------|





  Q    Q    Q    Q       Q    Q    Q    Q       Q    Q     Q    Q     
----------------------|----------------------|-----------------------|
----------------------|----------------------|------------10---------|
--6----7--------------|--6----7--------------|--6----7---------------|
------------7---------|------------7---------|-----------------------|
----------------------|----------------------|-----------------------|
----------------------|----------------------|-----------------------|





    Q    Q    Q    Q       Q    Q    Q    Q       Q    Q    Q    Q     
|-----------------------|----------------------|----------------------|
|-----------------------|----------------------|----------------------|
|*--6----7--------------|--6----7--------------|--6----7--------------|
|*------------7---------|------------7---------|------------7---------|
|-----------------------|----------------------|----------------------|
|-----------------------|----------------------|----------------------|





  Q    Q     Q    Q       H        Q     Q        H        H         
-----------------------|----------------------|---------------------|
------------10---------|----------------------|---------------------|
--6----7---------------|----------------------|---------------------|
-----------------------|--7--------L----11----|---L--------9--------|
-----------------------|--5--------L-----9----|---L--------7--------|
-----------------------|----------------------|---------------------|





  E  E  E  E  E  E  E  E     E  E  E  E  E  E  E  E       Q    Q    Q    Q     
--------------------------|--------------------------||-----------------------|
--------------------------|--------------------------||-----------------------|
--------------------------|--------------------------||*--6----7--------------|
--L-----------------------|--------------------------||*------------7---------|
--7--7--7--7--7--7--7--7--|--7--7--7--7--7--7--7--7--||-----------------------|
--------------------------|--------------------------||-----------------------|





  Q    Q    Q    Q       Q    Q    Q    Q       Q    Q     Q    Q       
----------------------|----------------------|------------------------||
----------------------|----------------------|------------10----------||
--6----7--------------|--6----7--------------|--6----7---------------*||
------------7---------|------------7---------|-----------------------*||
----------------------|----------------------|------------------------||
----------------------|----------------------|------------------------||





  Q    Q    Q    Q       Q    Q    Q    Q       Q    Q    Q    Q     
----------------------|----------------------|----------------------|
----------------------|----------------------|----------------------|
--6----7--------------|--6----7--------------|--6----7--------------|
------------7---------|------------7---------|------------7---------|
----------------------|----------------------|----------------------|
----------------------|----------------------|----------------------|





  Q    Q     Q    Q       H        Q     Q        H        H         
-----------------------|----------------------|---------------------|
------------10---------|----------------------|---------------------|
--6----7---------------|----------------------|---------------------|
-----------------------|--7--------L----11----|---L--------9--------|
-----------------------|--5--------L-----9----|---L--------7--------|
-----------------------|----------------------|---------------------|





  E  E  E  E  E  E  E  E     E  E  E  E  E  E  E  E   
--------------------------|--------------------------|
--------------------------|--------------------------|
--------------------------|--------------------------|
--L-----------------------|--------------------------|
--7--7--7--7--7--7--7--7--|--7--7--7--7--7--7--7--7--|
--------------------------|--------------------------|





   E  E   E   E  E   E  E  E     E  E  E  E  Q    E  E   
------------------------------|-------------------------|
------------------------------|-------------------------|
------------------------------|-------------------------|
--12--0--12--11--0--11--7--0--|--7--0--7--0--4----2--0--|
------------------------------|-------------------------|
------------------------------|-------------------------|





   E  E   E   E  E   E  E  E     E  E  E  E  E  E  E  E   
------------------------------|--------------------------|
------------------------------|--------------------------|
------------------------------|--------------------------|
--12--0--12--11--0--11--7--0--|--7--0--7--0--2--4--2--0--|
------------------------------|--------------------------|
------------------------------|--------------------------|





   E  E   E   E  E   E  E  E     E  E  E  E  Q    E  E   
------------------------------|-------------------------|
------------------------------|-------------------------|
------------------------------|-------------------------|
--12--0--12--11--0--11--7--0--|--7--0--7--0--4----2--0--|
------------------------------|-------------------------|
------------------------------|-------------------------|





  E  E  E  E  E  E  Q       Q    H        Q       W                 
-------------------------|---------------------|-------------------|
-------------------------|---------------------|-------------------|
-------------------------|---------------------|-------------------|
--4--2--0--4--2--0--7----|--L----2-------------|-------------------|
-------------------------|---------------------|--0----------------|
-------------------------|---------------------|--0----------------|





  W                   W                  
-------------------|-------------------||
-------------------|-------------------||
-------------------|-------------------||
-------------------|-------------------||
--L----------------|--L----------------||
--L----------------|--L----------------||



Tap to rate this tab
# A B C D E F G H I J K L M N O P Q R S T U V W X Y Z