Guitaretab - guitar tabs
Song name
# A B C D E F G H I J K L M N O P Q R S T U V W X Y Z

Nevermore - This Godless Endeavor tab

#----------------------------------PLEASE NOTE---------------------------------#
#This file is the author's own work and represents their interpretation of the #
#song. You may only use this file for private study, scholarship, or research. #
#------------------------------------------------------------------------------#

THIS GODLESS ENDEAVOR (Bassline)
As recorded by Nevermore
(From the 2005 Album THIS GODLESS ENDEAVOR)

Transcribed by FlyingJew34
	

Words by Wareel Dane Music by Jeff Loomis & Warrel Dane
Arranged by Andy Sneap (I think according to the back of the booklet)

Gtr I (A# D# G# C# F#) - 'Bass'
Gtr II (E A D G F) - 'Percussion'

 Acoustic Intro
  Q=115
 4/4           3/4
  Gtrs I, II
  Wx31          W
|-------------|------||
|-------------|------||
|-------------|------||
|-------------|------||
|-------------|------||


 Metal Intro
  Slower Feel Q=75
 4/4
  Gtr I
                                       |--3---|
  H.               Q     Q   Q   Q   E S  S   S
|----------------------|-------------------------|
|----------------------|-------------------------|
|----------------------|-------------------------|
|------------------3---|-----5-------------------|
|-0--------------------|-5-------8---1-1--1---1--|
|
| Gtr II
|                                      |--3---|
| E  E E E S  S  E E E   E E E E E E E S  S   S
|-0--0-0-0-0-(0)-0-0-0-|-0-0-0-0-0-0-0-0-(0)-(0)-|
|------9-----------9---|-----9-------9-----------|
|-9--------9--9--------|-9-------9-----9--9---9--|
|----------------------|-------------------------|
|----------------------|-------------------------|


  H.               Q     Q   Q   Q   Q
|----------------------|---------------------------|
|----------------------|---------------------------|
|----------------------|---------------------------|
|------------------3---|-----5---3s==8-------------|
|-0--------------------|-5-------------------------|
|
|                                      |--3---|
| E  E E E S  S  E E E   E E E E E E E S  S   S
|-0--0-0-0-0-(0)-0-0-0-|-0-0-0-0-0-0-0-0-(0)-(0)---|
|------9-----------9---|-----9-------9-------------|
|-9--------9--9--------|-9-------9-----9--9---9----|
|----------------------|---------------------------|
|----------------------|---------------------------|


  Q    E   E  +Q        Q     Q    Q    +Q            Q
|------7--(7)-(7)-----------|-----------------------------|
|---------------------------|------6----(6)---------------|
|----------5--(5)-----------|-----------------------------|
|-3---(3)-(3)-(3)-------5---|-4---(4)---(4)-----------5---|
|---------------------------|-----------------------------|
|
| E E  E   E   S   S  E E E   E E  E  E  S   S  S  S  E E
|-0-0--0---0---0--(0)-0-0-0-|-0-0--0--0--0--(0)-0-(0)-0-0-|
|------9----------------9---|------9------------------9---|
|-9------------9---9--------|-9----------9---9--9--9------|
|---------------------------|-----------------------------|
|---------------------------|-----------------------------|


  Q    E   E  +Q        Q     W
|------7--(7)-(7)-----------|-----------------------------------|
|---------------------------|-----------------------------------|
|----------5--(5)-----------|-----------------------------------|
|-3---(3)-(3)-(3)-------5---|-----------------------------------|
|---------------------------|-5---------------------------------|
|
|                                     |-----6-----| |----6----|
| E E  E   E   S   S  E E E   E E E E S  S  S S S S S S S S S S
|-0-0--0---0---0--(0)-0-0-0-|-0-0-0-0---------------------------|
|------9----------------9---|-----9---9-(9)-9-9-9-9-5-5-5-5-5-5-|
|-9------------9---9--------|-9---------------------9-9-9-9-9-9-|
|---------------------------|-----------------------------------|
|---------------------------|-----------------------------------|


                                                |--3---|
  Q              Q    +Q    Q     Q   Q   Q   E S  S   S
|-------------------------------|-------------------------|
|-------------------------------|-------------------------|
|-------------------------------|-------------------------|
|----------------7----(7)---3---|-----5---3---------------|
|-0-------------(0)---(0)-------|-5-----------1-1--1---1--|
|
| |-----6-----|                                 |--3---|
| S  S  S S S S  E  E  E  E E E   E E E E E E E S  S   S
|-0-(0)----------0--0--0--0-0-0-|-0-0-0-0-0-0-0-0-(0)-(0)-|
|-9--------------9----------9---|-----9-------9-----------|
|-9-(9)-9-9-9-9--------9--------|-9-------9-----9--9---9--|
|-------------------------------|-------------------------|
|-------------------------------|-------------------------|


  H.               Q     Q   Q   Q   Q
|----------------------|-------------------------|
|----------------------|-------------------------|
|----------------------|-------------------------|
|------------------3---|-----5---3s==8-----------|
|-0--------------------|-5-----------------------|
|
|                                      |--3---|
| E  E E E S  S  E E E   E E E E E E E S  S   S
|-0--0-0-0-0-(0)-0-0-0-|-0-0-0-0-0-0-0-0-(0)-(0)-|
|------9-----------9---|-----9-------9-----------|
|-9--------9--9--------|-9-------9-----9--9---9--|
|----------------------|-------------------------|
|----------------------|-------------------------|


  Q    E   E  +Q        Q     Q    Q    +Q            Q
|------7--(7)-(7)-----------|-----------------------------|
|---------------------------|------6----(6)---------------|
|----------5--(5)-----------|-----------------------------|
|-3---(3)-(3)-(3)-------5---|-4---(4)---(4)-----------5---|
|---------------------------|-----------------------------|
|
| E E  E   E   S   S  E E E   E E  E  E  S   S  S  S  E E
|-0-0--0---0---0--(0)-0-0-0-|-0-0--0--0--0--(0)-0-(0)-0-0-|
|------9----------------9---|------9------------------9---|
|-9------------9---9--------|-9----------9---9--9--9------|
|---------------------------|-----------------------------|
|---------------------------|-----------------------------|


  Q    E   E  +Q        Q     W
|------7--(7)-(7)-----------|-----------------------------------|
|---------------------------|-----------------------------------|
|----------5--(5)-----------|-----------------------------------|
|-3---(3)-(3)-(3)-------5---|-----------------------------------|
|---------------------------|-5---------------------------------|
|
|                                     |-----6-----| |----6----|
| E E  E   E   S   S  E E E   E E E E S  S  S S S S S S S S S S
|-0-0--0---0---0--(0)-0-0-0-|-0-0-0-0---------------------------|
|------9----------------9---|-----9---9-(9)-9-9-9-9-5-5-5-5-5-5-|
|-9------------9---9--------|-9---------------------9-9-9-9-9-9-|
|---------------------------|-----------------------------------|
|---------------------------|-----------------------------------|


                                              |--3---|
  Q            Q    +Q    Q     Q   Q   Q   E S  S   S
|-----------------------------|-------------------------|
|-----------------------------|-------------------------|
|-----------------------------|-------------------------|
|--------------7----(7)---3---|-----5---3---------------|
|-0-----------(0)---(0)-------|-5-----------1-1--1---1--|
|
| |----6----|                                 |--3---|
| S S S S S S  E  E  E  E E E   E E E E E E E S  S   S
|-0-0----------0--0--0--0-0-0-|-0-0-0-0-0-0-0-0-(0)-(0)-|
|-9------------9----------9---|-----9-------9-----------|
|-9-9-9-9-9-9--------9--------|-9-------9-----9--9---9--|
|-----------------------------|-------------------------|
|-----------------------------|-------------------------|


                                           Faster E.=155
 6/4                                        3/4
                                                   |--3--|
  W.                                         S S S S S   S S S S S S S S
|------------------------------------------|-------------------------------||
|------------------------------------------|-------------------------------||
|------------------------------------------|-5---3-2h3p==2-----------------||
|------------------------------------------|---3-----------3-5-2---3-0-----||
|-0----------------------------------------|---------------------0-----3---||
|
|          |----6----| |----6----|
| E  E E E S S S S S S S S S S S S E E E E   S S S S   S   S S S S S S S
|-0--0-0-0-------------------------0-0-0-0-|-------------------------------||
|------9---9-------7-6-5-4---------9-------|-9---------------9-----9-9-9---||
|-9--------9-9-9-9-9-9-9-9-9-9-9-9-----9---|-9-9-9-9---9---9-9-9-9-9-9-9---||
|------------------------------------------|-------------------------------||
|------------------------------------------|-------------------------------||


 Bridge
                                                                          |---3---|
  S  S   S  S  S   S  S  S   S  S  S   S    S  S   S  S  S   S  S  S   S  S S     S      S
|-----------------------------------------|-------------------------------------------------|
|-----------------------------------------|-------------------------------------------------|
|-----------------------------------------|-------------------------------------------------|
|-7-------------------7-------------------|-8-------------------8------7--5h7p====5---------|
|----6---5--0--5---6-----6---5--0--5---6--|----6---5--0--5---6-----6---------------------6--|
|
| S  S   S  S  S   S  S  S   S  S  S   S    S  S   S  S  S   S  S  S   S  S    S     a   S
|-3-(3)-(3)-3-(3)-(3)-3-(3)-(3)-3-(3)-(3)-|-3-(3)-(3)-3-(3)-(3)-3-(3)-(3)-3---(3)---(3)-(3)-|
|-----------9-------------------9---------|-----------9-------------------9----------9---9--|
|-9--9---9--9--9---9--9--9---9--9--9---9--|-9--9---9--9--9---9--9--9---9--9----9---------9--|
|-----------------------------------------|-------------------------------------------------|
|-----------------------------------------|-------------------------------------------------|


                                                      |---3---|
  S  S   S  S  S   S  S  S   S  S  S   S    S  S   S  S S     S  S  S  S   S  S  S   S
|-----------------------------------------|------------------------------------------------|
|-----------------------------------------|------------------------------------------------|
|-----------------------------------------|-5------3--2h3p====2----------------------------|
|-7-------------------7-------------------|----3-----------------3--5--2------3--0---------|
|----6---5--0--5---6-----6---5--0--5---6--|--------------------------------0---------3-----|
|
| S  S   S  S  S   S  S  S   S  S  S   S    S  S   S  S    S     S  S  S   S  S  S   S
|-3-(3)-(3)-3-(3)-(3)-3-(3)-(3)-3-(3)-(3)-|-3-(3)-(3)-3---(3)---(3)-0-(0)-(0)-0-(0)-(0)----|
|-----------9-------------------9---------|-----------9------------------------------------|
|-9--9---9--9--9---9--9--9---9--9--9---9--|-9--9---9--9----9-----9--9--9---9--9--9---9-----|
|-----------------------------------------|------------------------------------------------|
|-----------------------------------------|------------------------------------------------|


                                                                          |---3---|
  S  S   S  S  S   S  S  S   S  S  S   S    S  S   S  S  S   S  S  S   S  S S     S      S
|-----------------------------------------|-------------------------------------------------|
|-----------------------------------------|-------------------------------------------------|
|-----------------------------------------|-------------------------------------------------|
|-7-------------------7-------------------|-8-------------------8------7--5h7p====5---------|
|----6---5--0--5---6-----6---5--0--5---6--|----6---5--0--5---6-----6---------------------6--|
|
| S  S   S  S  S   S  S  S   S  S  S   S    S  S   S  S  S   S  S  S   S  S    S     a   S
|-3-(3)-(3)-3-(3)-(3)-3-(3)-(3)-3-(3)-(3)-|-3-(3)-(3)-3-(3)-(3)-3-(3)-(3)-3---(3)---(3)-(3)-|
|-----------9-------------------9---------|-----------9-------------------9----------9---9--|
|-9--9---9--9--9---9--9--9---9--9--9---9--|-9--9---9--9--9---9--9--9---9--9----9---------9--|
|-----------------------------------------|-------------------------------------------------|
|-----------------------------------------|-------------------------------------------------|


  S  S   S  S  S   S  S  S   S  S  S   S    W
|-----------------------------------------|---------||
|-----------------------------------------|---------||
|-----------------------------------------|---------||
|-7-------------------7-------------------|---------||
|----6---5--0--5---6-----6---5--0--5---6--|---------||
|
| S  S   S  S  S   S  S  S   S  S  S   S    Q  H
|-3-(3)-(3)-3-(3)-(3)-3-(3)-(3)-3-(3)-(3)-|-3-------||
|-----------9-------------------9---------|---------||
|-9--9---9--9--9---9--9--9---9--9--9---9--|-9-------||
|-----------------------------------------|---------||
|-----------------------------------------|---------||


   Q  H      W        W        S  S   S  S  S   S  S  S   S  S  S   S
|----------|--------|--------|-----------------------------------------||
|----------|--------|--------|-7-10---7-----7--------------------------||
|----------|--------|--------|-----------9------9--6--9---6-----6------||
|----------|--------|--------|-------------------------------8------8--||
|--0-------|--------|--------|-----------------------------------------||
|
|  Q  H      W        W        S  S   S  S  S   S  S  S   S  S  S   S
|--0-------|--------|--------|-3-(3)-(3)-3-(3)-(3)-3-(3)-(3)-3-(3)-(3)-||
|--9-------|--------|--------|-9-(9)-(9)-9-(9)-(9)-9-(9)-(9)-9-(9)-(9)-||
|--9-------|--------|--------|-9--9---9--9--9---9--9--9---9--9--9---9--||
|-11-------|--------|--------|-----------------------------------------||
|----------|--------|--------|-----------------------------------------||


 Verse 1
  E          S      S  S   S  S  S   S  S  S   S    E      S  S  S   S  E      S  S  S   S
|-------------------------------------------------|-----------------------------------------|
|-------------------------------------------------|-----------------------------------------|
|-------------------------------------------------|-----------------------------------------|
|-7----------7------------------------------------|-8------8------------5------5------------|
|-------------------0--0---0-----0---0--0--0---0--|-----------0--0---0------------0--0---0--|
|
| S  T   T   T   T  S  S   S  S  S   S  S  S   S    S  S   S  S  S   S  S  S   S  S  S   S
|-0-(0)-(0)-(0)-(0)-0-(0)-(0)-0-(0)-(0)-0-(0)-(0)-|-0-(0)-(0)-0-(0)-(0)-0-(0)-(0)-0-(0)-(0)-|
|-------------------9-------------------9-(9)-(9)-|-----------9-(9)-(9)-----------9-(9)--9--|
|-9--9---9---9---9--9--9---9--9--9---9--9--9---9--|-9--9---9--9--9---9--9--9---9--9--9---9--|
|-------------------------------------------------|-----------------------------------------|
|-------------------------------------------------|-----------------------------------------|


  E          S      S  S   S  S  S   S  S  S   S    S  S   S  S S S S S S S S S
|-------------------------------------------------|--------------------------------|
|-------------------------------------------------|--------------------------------|
|-------------------------------------------------|--------------------------------|
|-7----------7------------------------------------|-7--8---8--8-5-8---8---8--------|
|-------------------0--0---0-----0---0--0--0---0--|-----------------7---5---4-0----|
|
| S  T   T   T   T  S  S   S  S  S   S  S  S   S    S  S   S  S S S S S S S S S
|-0-(0)-(0)-(0)-(0)-0-(0)-(0)-0-(0)-(0)-0-(0)-(0)-|-0-(0)-(0)----------------------|
|-------------------9-------------------9-(9)-(9)-|-----------9-9-------9-9--------|
|-9--9---9---9---9--9--9---9--9--9---9--9--9---9--|-9--9---9--9-9-9-9-9-9-9-9-9----|
|-------------------------------------------------|--------------------------------|
|-------------------------------------------------|--------------------------------|


  E          S      S  S   S  S  S   S  S  S   S    E      S  S  S   S  E      S  S  S   S
|-------------------------------------------------|-----------------------------------------|
|-------------------------------------------------|-----------------------------------------|
|-------------------------------------------------|-----------------------------------------|
|-7----------7------------------------------------|-8------8------------5------5------------|
|-------------------0--0---0-----0---0--0--0---0--|-----------0--0---0------------0--0---0--|
|
| S  T   T   T   T  S  S   S  S  S   S  S  S   S    S  S   S  S  S   S  S  S   S  S  S   S
|-0-(0)-(0)-(0)-(0)-0-(0)-(0)-0-(0)-(0)-0-(0)-(0)-|-0-(0)-(0)-0-(0)-(0)-0-(0)-(0)-0-(0)-(0)-|
|-------------------9-------------------9-(9)-(9)-|-----------9-(9)-(9)-----------9-(9)--9--|
|-9--9---9---9---9--9--9---9--9--9---9--9--9---9--|-9--9---9--9--9---9--9--9---9--9--9---9--|
|-------------------------------------------------|-----------------------------------------|
|-------------------------------------------------|-----------------------------------------|


  E          S      S  S   S  S  S   S  S  S   S    S  S   S  S  S   S  S  S   S  S  S   S
|-------------------------------------------------|--------------------------------------------|
|-------------------------------------------------|-7-10---7-----7-----------------------------|
|-------------------------------------------------|-----------9------9--6--9---6-----6---------|
|-7----------7------------------------------------|-------------------------------8------8-----|
|-------------------0--0---0-----0---0--0--0---0--|--------------------------------------------|
|
| S  T   T   T   T  S  S   S  S  S   S  S  S   S    S  S   S  S  S   S  S  S   S  S  S   S
|-0-(0)-(0)-(0)-(0)-0-(0)-(0)-0-(0)-(0)-0-(0)-(0)-|-3-(3)-(3)-3-(3)-(3)-3-(3)-(3)-3-(3)-(3)----|
|-------------------9-------------------9-(9)-(9)-|-9-(9)-(9)-9-(9)-(9)-9-(9)-(9)-9-(9)-(9)----|
|-9--9---9---9---9--9--9---9--9--9---9--9--9---9--|-9--9---9--9--9---9--9--9---9--9--9---9-----|
|-------------------------------------------------|--------------------------------------------|
|-------------------------------------------------|--------------------------------------------|


  E          S      S  S   S  S  S   S  S  S   S    E      S  S  S   S  E      S  S  S   S
|-------------------------------------------------|-----------------------------------------|
|-------------------------------------------------|-----------------------------------------|
|-------------------------------------------------|-----------------------------------------|
|-7----------7------------------------------------|-8------8------------5------5------------|
|-------------------0--0---0-----0---0--0--0---0--|-----------0--0---0------------0--0---0--|
|
| S  T   T   T   T  S  S   S  S  S   S  S  S   S    S  S   S  S  S   S  S  S   S  S  S   S
|-0-(0)-(0)-(0)-(0)-0-(0)-(0)-0-(0)-(0)-0-(0)-(0)-|-0-(0)-(0)-0-(0)-(0)-0-(0)-(0)-0-(0)-(0)-|
|-------------------9-------------------9-(9)-(9)-|-----------9-(9)-(9)-----------9-(9)--9--|
|-9--9---9---9---9--9--9---9--9--9---9--9--9---9--|-9--9---9--9--9---9--9--9---9--9--9---9--|
|-------------------------------------------------|-----------------------------------------|
|-------------------------------------------------|-----------------------------------------|


  E          S      S  S   S  S  S   S  S  S   S    S  S   S   S   S   S  S S S S S S
|-------------------------------------------------|--------------------------------------||
|-------------------------------------------------|--------------------------------------||
|-------------------------------------------------|--------------------------------------||
|-7----------7------------------------------------|-7--8---8---8---5---8----8---8--------||
|-------------------0--0---0-----0---0--0--0---0--|-----------------------7---5---4-0----||
|
| S  T   T   T   T  S  S   S  S  S   S  S  S   S    S  S   S   S   S   S  S S S S S S
|-0-(0)-(0)-(0)-(0)-0-(0)-(0)-0-(0)-(0)-0-(0)-(0)-|-0-(0)-(0)----------------------------||
|-------------------9-------------------9-(9)-(9)-|-----------(9)-(9)-(9)-9-9-9-9-9-9----||
|-9--9---9---9---9--9--9---9--9--9---9--9--9---9--|-9--9---9---9---9---9--9-9-9-9-9-9----||
|-------------------------------------------------|--------------------------------------||
|-------------------------------------------------|--------------------------------------||


 Breakdown
   S  S   S   S   S   S  S S S S S S   S  S   S   S   S   S  S S S S S S
|------------------------------------|-----------------------------------|
|------------------------------------|-----------------------------------|
|------------------------------------|-----------------------------------|
|------------------------------------|-----------------------------------|
|--3--3---3---3---3---3--3-3-3-3-3-3-|-3--4---4---4---4---4--4-4-4-4-4-4-|
|
|  S  S   S   S   S   S  S S S S S S   S  S   S   S   S   S  S S S S S S
|--0-(0)-(0)-(0)-(0)-(0)-------------|-3-(3)-(3)-(3)-(3)-(3)-------------|
|------------------------9-----------|-----------------------9-----9-----|
|--9--9---9---9---9---9--9-9-9-9-9-9-|-9--9---9---9---9---9--9-9-9-9-9-9-|
|-11---------------------------------|-----------------------------------|
|------------------------------------|-----------------------------------|


  S S S S S S S S S S S S   S S S S S S S S S S S S
|-------------------------|----------------------------|
|-------------------------|----------------------------|
|-------------------------|----------------------------|
|-------------------------|----------------------------|
|-4-1-1-1-1-1-1-1-1-1-1-1-|-1-4-4-4-4-4-4-4-4-4-4-4----|
|
| S S S S S S S S S S S S   S S S S S S S S S S S S
|-------------------------|----------------------------|
|-------------9-----------|-----------------7-6-5-4----|
|-9-9-9-9-9-9-9-9-9-9-9-9-|-9-9-9-9-9-9-9-9-9-9-9-9----|
|-------------------------|----------------------------|
|-------------------------|----------------------------|


  S  S   S   S   S   S  S S S S S S   S  S   S   S   S   S  S S S S S S
|-----------------------------------|-----------------------------------|
|-----------------------------------|-----------------------------------|
|-----------------------------------|-----------------------------------|
|-----------------------------------|-----------------------------------|
|-4--3---3---3---3---3--3-3-3-3-3-3-|-3--4---4---4---4---4--4-4-4-4-4-4-|
|
| S  S   S   S   S   S  S S S S S S   S  S   S   S   S   S  S S S S S S
|-3-(3)-(3)-(3)-(3)-(3)-------------|-3-(3)-(3)-(3)-(3)-(3)-------------|
|-----------------------9-----------|-----------------------9-----9-----|
|-9--9---9---9---9---9--9-9-9-9-9-9-|-9--9---9---9---9---9--9-9-9-9-9-9-|
|-----------------------------------|-----------------------------------|
|-----------------------------------|-----------------------------------|


  S S S S S S S S S S S S   S  S   S   S   S   S  S S S S S S
|-------------------------|--------------------------------------||
|-------------------------|--------------------------------------||
|-------------------------|--------------------------------------||
|-------------------------|--------------------------------------||
|-4-1-1-1-1-1-1-1-1-1-1-1-|-1--4---4---4---4---4--4-4-4-4-4-4----||
|
| S S S S S S S S S S S S   S  S   S   S   S   S  S S S S S S
|-------------------------|-3-(3)-(3)-(3)-(3)-(3)----------------||
|-------------9-----------|------------9---9------9---9-9-9-9----||
|-9-9-9-9-9-9-9-9-9-9-9-9-|-9--9---9---9---9---9--9-9-9-9-9-9----||
|-------------------------|--------------------------------------||
|-------------------------|--------------------------------------||


 Verses 2 & 3
  $
  E          S      S  S   S  S  S   S  S  S   S    E      S  S  S   S  E      S  S  S   S
|-------------------------------------------------|-----------------------------------------|
|-------------------------------------------------|-----------------------------------------|
|-------------------------------------------------|-----------------------------------------|
|-7----------7------------------------------------|-8------8------------5------5------------|
|-------------------0--0---0-----0---0--0--0---0--|-----------0--0---0------------0--0---0--|
|
| S  T   T   T   T  S  S   S  S  S   S  S  S   S    S  S   S  S  S   S  S  S   S  S  S   S
|-0-(0)-(0)-(0)-(0)-0-(0)-(0)-0-(0)-(0)-0-(0)-(0)-|-0-(0)-(0)-0-(0)-(0)-0-(0)-(0)-0-(0)-(0)-|
|-------------------9-------------------9-(9)-(9)-|-----------9-(9)-(9)-----------9-(9)--9--|
|-9--9---9---9---9--9--9---9--9--9---9--9--9---9--|-9--9---9--9--9---9--9--9---9--9--9---9--|
|-------------------------------------------------|-----------------------------------------|
|-------------------------------------------------|-----------------------------------------|


  E          S      S  S   S  S  S   S  S  S   S    S  S   S  S  S   S  S  S   S  S  S   S
|-------------------------------------------------|--------------------------------------------|
|-------------------------------------------------|-7-10---7-----7-----------------------------|
|-------------------------------------------------|-----------9------9--6--9---6-----6---------|
|-7----------7------------------------------------|-------------------------------8------8-----|
|-------------------0--0---0-----0---0--0--0---0--|--------------------------------------------|
|
| S  T   T   T   T  S  S   S  S  S   S  S  S   S    S  S   S  S  S   S  S  S   S  S  S   S
|-0-(0)-(0)-(0)-(0)-0-(0)-(0)-0-(0)-(0)-0-(0)-(0)-|-3-(3)-(3)-3-(3)-(3)-3-(3)-(3)-3-(3)-(3)----|
|-------------------9-------------------9-(9)-(9)-|-9-(9)-(9)-9-(9)-(9)-9-(9)-(9)-9-(9)-(9)----|
|-9--9---9---9---9--9--9---9--9--9---9--9--9---9--|-9--9---9--9--9---9--9--9---9--9--9---9-----|
|-------------------------------------------------|--------------------------------------------|
|-------------------------------------------------|--------------------------------------------|


  E          S      S  S   S  S  S   S  S  S   S    E      S  S  S   S  E      S  S  S   S
|-------------------------------------------------|-----------------------------------------|
|-------------------------------------------------|-----------------------------------------|
|-------------------------------------------------|-----------------------------------------|
|-7----------7------------------------------------|-8------8------------5------5------------|
|-------------------0--0---0-----0---0--0--0---0--|-----------0--0---0------------0--0---0--|
|
| S  T   T   T   T  S  S   S  S  S   S  S  S   S    S  S   S  S  S   S  S  S   S  S  S   S
|-0-(0)-(0)-(0)-(0)-0-(0)-(0)-0-(0)-(0)-0-(0)-(0)-|-0-(0)-(0)-0-(0)-(0)-0-(0)-(0)-0-(0)-(0)-|
|-------------------9-------------------9-(9)-(9)-|-----------9-(9)-(9)-----------9-(9)--9--|
|-9--9---9---9---9--9--9---9--9--9---9--9--9---9--|-9--9---9--9--9---9--9--9---9--9--9---9--|
|-------------------------------------------------|-----------------------------------------|
|-------------------------------------------------|-----------------------------------------|


  E          S      S  S   S  S  S   S  S  S   S    S  S   S  S S S S S S S S S
|-------------------------------------------------|--------------------------------|
|-------------------------------------------------|--------------------------------|
|-------------------------------------------------|--------------------------------|
|-7----------7------------------------------------|-7--8---8--8-5-8---8---8--------|
|-------------------0--0---0-----0---0--0--0---0--|-----------------7---5---4-0----|
|
| S  T   T   T   T  S  S   S  S  S   S  S  S   S    S  S   S  S S S S S S S S S
|-0-(0)-(0)-(0)-(0)-0-(0)-(0)-0-(0)-(0)-0-(0)-(0)-|-0-(0)-(0)----------------------|
|-------------------9-------------------9-(9)-(9)-|-----------9-9-------9-9--------|
|-9--9---9---9---9--9--9---9--9--9---9--9--9---9--|-9--9---9--9-9-9-9-9-9-9-9-9----|
|-------------------------------------------------|--------------------------------|
|-------------------------------------------------|--------------------------------|


  E          S      S  S   S  S  S   S  S  S   S    E      S  S  S   S  E      S  S  S   S
|-------------------------------------------------|-----------------------------------------|
|-------------------------------------------------|-----------------------------------------|
|-------------------------------------------------|-----------------------------------------|
|-7----------7------------------------------------|-8------8------------5------5------------|
|-------------------0--0---0-----0---0--0--0---0--|-----------0--0---0------------0--0---0--|
|
| S  T   T   T   T  S  S   S  S  S   S  S  S   S    S  S   S  S  S   S  S  S   S  S  S   S
|-0-(0)-(0)-(0)-(0)-0-(0)-(0)-0-(0)-(0)-0-(0)-(0)-|-0-(0)-(0)-0-(0)-(0)-0-(0)-(0)-0-(0)-(0)-|
|-------------------9-------------------9-(9)-(9)-|-----------9-(9)-(9)-----------9-(9)--9--|
|-9--9---9---9---9--9--9---9--9--9---9--9--9---9--|-9--9---9--9--9---9--9--9---9--9--9---9--|
|-------------------------------------------------|-----------------------------------------|
|-------------------------------------------------|-----------------------------------------|


  E          S      S  S   S  S  S   S  S  S   S    S  S   S  S  S   S  S  S   S  S  S   S
|-------------------------------------------------|--------------------------------------------|
|-------------------------------------------------|-7-10---7-----7-----------------------------|
|-------------------------------------------------|-----------9------9--6--9---6-----6---------|
|-7----------7------------------------------------|-------------------------------8------8-----|
|-------------------0--0---0-----0---0--0--0---0--|--------------------------------------------|
|
| S  T   T   T   T  S  S   S  S  S   S  S  S   S    S  S   S  S  S   S  S  S   S  S  S   S
|-0-(0)-(0)-(0)-(0)-0-(0)-(0)-0-(0)-(0)-0-(0)-(0)-|-3-(3)-(3)-3-(3)-(3)-3-(3)-(3)-3-(3)-(3)----|
|-------------------9-------------------9-(9)-(9)-|-9-(9)-(9)-9-(9)-(9)-9-(9)-(9)-9-(9)-(9)----|
|-9--9---9---9---9--9--9---9--9--9---9--9--9---9--|-9--9---9--9--9---9--9--9---9--9--9---9-----|
|-------------------------------------------------|--------------------------------------------|
|-------------------------------------------------|--------------------------------------------|


  E          S      S  S   S  S  S   S  S  S   S    E      S  S  S   S  E      S  S  S   S
|-------------------------------------------------|-----------------------------------------|
|-------------------------------------------------|-----------------------------------------|
|-------------------------------------------------|-----------------------------------------|
|-7----------7------------------------------------|-8------8------------5------5------------|
|-------------------0--0---0-----0---0--0--0---0--|-----------0--0---0------------0--0---0--|
|
| S  T   T   T   T  S  S   S  S  S   S  S  S   S    S  S   S  S  S   S  S  S   S  S  S   S
|-0-(0)-(0)-(0)-(0)-0-(0)-(0)-0-(0)-(0)-0-(0)-(0)-|-0-(0)-(0)-0-(0)-(0)-0-(0)-(0)-0-(0)-(0)-|
|-------------------9-------------------9-(9)-(9)-|-----------9-(9)-(9)-----------9-(9)--9--|
|-9--9---9---9---9--9--9---9--9--9---9--9--9---9--|-9--9---9--9--9---9--9--9---9--9--9---9--|
|-------------------------------------------------|-----------------------------------------|
|-------------------------------------------------|-----------------------------------------|


                                                                               To Coda
  E          S      S  S   S  S  S   S  S  S   S    S  S   S   S   S   S  S S S S S S
|-------------------------------------------------|---------------------------------------||
|-------------------------------------------------|---------------------------------------||
|-------------------------------------------------|---------------------------------------||
|-7----------7------------------------------------|-7--8---8---8---5---8----8---8---------||
|-------------------0--0---0-----0---0--0--0---0--|-----------------------7---5---4-0-----||
|
| S  T   T   T   T  S  S   S  S  S   S  S  S   S    S  S   S   S   S   S  S S S S S S
|-0-(0)-(0)-(0)-(0)-0-(0)-(0)-0-(0)-(0)-0-(0)-(0)-|-0-(0)-(0)-----------------------------||
|-------------------9-------------------9-(9)-(9)-|-----------(9)-(9)-(9)-9-9-9-9-9-9-----||
|-9--9---9---9---9--9--9---9--9--9---9--9--9---9--|-9--9---9---9---9---9--9-9-9-9-9-9-----||
|-------------------------------------------------|---------------------------------------||
|-------------------------------------------------|---------------------------------------||


 Chorus
   E.          E.         E.     E.       E.          E.         E.     E.
|---------------------------------------|--------------------------------------|
|---------------------------------------|--------------------------------------|
|---------------------------------------|--------------------------------------|
|---------------------------------------|--------------------------------------|
|--5-----------4----------5------0------|-5-----------4----------5------0------|
|
|  S   S   S   S   S   S  S  S S S  S S   S   S   S   S   S   S  S  S S S  S S
|--3--(3)-(3)-(3)-(3)-(3)-3-------------|-3--(3)-(3)-(3)-(3)-(3)---------------|
|-------------------------9-------------|-------------9----------9------9------|
|--9---9---9---9---9---9--9--9-9-9--9-9-|-9---9---9---9---9---9--9--9-9-9--9-9-|
|-11------------------------------------|--------------------------------------|
|---------------------------------------|--------------------------------------|


  E.          E.         E.     E.       E.          E.         E.     E.
|--------------------------------------|-----------------------------------------|
|--------------------------------------|-----------------------------------------|
|--------------------------------------|-----------------------------------------|
|--------------------------------------|-----------------------------------------|
|-7-----------6----------7------0------|-7-----------6----------7------0---------|
|
| S   S   S   S   S   S  S  S S S  S S   S   S   S   S   S   S  S  S S S  S S
|-3--(3)-(3)-(3)-(3)-(3)---------------|-3--(3)-(3)-(3)-(3)-(3)------------------|
|------------------------9-------------|-------------9----------9------9---------|
|-9---9---9---9---9---9--9--9-9-9--9-9-|-9---9---9---9---9---9--9--9-9-9--9-9----|
|--------------------------------------|-----------------------------------------|
|--------------------------------------|-----------------------------------------|


  E.     E.     E.     E.       E.          E.         E.     E.
|-----------------------------|--------------------------------------|
|-----------------------------|--------------------------------------|
|-----------------------------|--------------------------------------|
|-----------------------------|--------------------------------------|
|-5------4------5------0------|-5-----------4----------5------0------|
|
| S  S S S  S S S  S S S  S S   S   S   S   S   S   S  S  S S S  S S
|-----------------------------|-3--(3)-(3)-(3)-(3)-(3)---------------|
|---------------9-------------|-------------9----------9----9-9--9---|
|-9--9-9-9--9-9-9--9-9-9--9-9-|-9---9---9---9---9---9--9--9-9-9--9-9-|
|-----------------------------|--------------------------------------|
|-----------------------------|--------------------------------------|


  E.     E.     E.     E.       E.          E.         E.     E.
|-----------------------------|-----------------------------------------||
|-----------------------------|-----------------------------------------||
|-----------------------------|-----------------------------------------||
|-----------------------------|-----------------------------------------||
|-7------6------7------0------|-7-----------6----------7------0---------||
|
| S  S S S  S S S  S S S  S S   S   S   S   S   S   S  S  S S S  S S
|-----------------------------|-3--(3)-(3)-(3)-(3)-(3)------------------||
|---------------9-------------|-------------9----------9----9-9--9------||
|-9--9-9-9--9-9-9--9-9-9--9-9-|-9---9---9---9---9---9--9--9-9-9--9-9----||
|-----------------------------|-----------------------------------------||
|-----------------------------|-----------------------------------------||


 Guitar Solo - Smyth
  S  S  S S S S  S  S  S  S  S  S   S  S  S S S S  S  S  S  S  S  S
|---------------------------------|---------------------------------|
|---------------------------------|---------------------------------|
|---------------------------------|---------------------------------|
|---------------------------------|---------------------------------|
|-5--0--4-5-4-0--5--0--4--5--4--0-|-5--0--4-5-4-0--5--0--4--5--4--0-|
|
| S  S  S S S S  S  S  S  S  S  S   S  S  S S S S  S  S  S  S  S  S
|-3-(3)---------------------------|-3-(3)---------------------------|
|-9-------------------------------|-9-------------------------------|
|-9--9--9-9-9-9--9--9--9--9--9--9-|-9--9--9-9-9-9--9--9--9--9--9--9-|
|---------------15-15-15-15-15-15-|---------------15-15-15-15-15-15-|
|---------------------------------|---------------------------------|


  S  S  S S S S  S  S  S  S  S  S   S  S  S S S S  S  S S S  S  S
|---------------------------------|----------------------------------|
|---------------------------------|----------------------------------|
|---------------------------------|----------------------------------|
|---------------------------------|----------------------------------|
|-7--0--6-7-6-0--7--0--6--7--6--0-|-7--0--6-7-6-0--7--0-6-7--6--0----|
|
| S  S  S S S S  S  S  S  S  S  S   S  S  S S S S  S  S S S  S  S
|-3-(3)---------------------------|-3-(3)----------------------------|
|-9-------------------------------|-9-------------------9-9----------|
|-9--9--9-9-9-9--9--9--9--9--9--9-|-9--9--9-9-9-9--9--9-9-9--9--9----|
|---------------15-15-15-15-15-15-|---------------15-15-----15-15----|
|---------------------------------|----------------------------------|


  S  S  S S S S  S  S  S  S  S  S   S  S  S S S S  S  S  S  S  S  S
|---------------------------------|---------------------------------|
|---------------------------------|---------------------------------|
|---------------------------------|---------------------------------|
|---------------------------------|---------------------------------|
|-5--0--4-5-4-0--5--0--4--5--4--0-|-5--0--4-5-4-0--5--0--4--5--4--0-|
|
| S  S  S S S S  S  S  S  S  S  S   S  S  S S S S  S  S  S  S  S  S
|-3-(3)---------------------------|-3-(3)---------------------------|
|-9-------------------------------|-9-------------------------------|
|-9--9--9-9-9-9--9--9--9--9--9--9-|-9--9--9-9-9-9--9--9--9--9--9--9-|
|---------------15-15-15-15-15-15-|---------------15-15-15-15-15-15-|
|---------------------------------|---------------------------------|


  S  S  S S S S  S  S  S  S  S  S   S  S  S S S S  S  S S S  S  S
|---------------------------------|----------------------------------||
|---------------------------------|----------------------------------||
|---------------------------------|----------------------------------||
|---------------------------------|----------------------------------||
|-7--0--6-7-6-0--7--0--6--7--6--0-|-7--0--6-7-6-0--7--0-6-7--6--0----||
|
| S  S  S S S S  S  S  S  S  S  S   S  S  S S S S  S  S S S  S  S
|-3-(3)---------------------------|-3-(3)----------------------------||
|-9-------------------------------|-9-------------------9-9----------||
|-9--9--9-9-9-9--9--9--9--9--9--9-|-9--9--9-9-9-9--9--9-9-9--9--9----||
|---------------15-15-15-15-15-15-|---------------15-15-----15-15----||
|---------------------------------|----------------------------------||


   E.          E.         E.     E.       E.          E.         E.     E.
|---------------------------------------|--------------------------------------|
|---------------------------------------|--------------------------------------|
|---------------------------------------|--------------------------------------|
|---------------------------------------|--------------------------------------|
|--5-----------4----------5------0------|-5-----------4----------5------0------|
|
|  S   S   S   S   S   S  S  S S S  S S   S   S   S   S   S   S  S  S S S  S S
|--3--(3)-(3)-(3)-(3)-(3)---------------|-3--(3)-(3)-(3)-(3)-(3)---------------|
|-------------------------9-------------|-------------9----------9------9------|
|--9---9---9---9---9---9--9--9-9-9--9-9-|-9---9---9---9---9---9--9--9-9-9--9-9-|
|-11------------------------------------|--------------------------------------|
|---------------------------------------|--------------------------------------|


  E.          E.         E.     E.       E.          E.         E.     E.
|--------------------------------------|-----------------------------------------|
|--------------------------------------|-----------------------------------------|
|--------------------------------------|-----------------------------------------|
|--------------------------------------|-----------------------------------------|
|-7-----------6----------7------0------|-7-----------6----------7------0---------|
|
| S   S   S   S   S   S  S  S S S  S S   S   S   S   S   S   S  S  S S S  S S
|-3--(3)-(3)-(3)-(3)-(3)---------------|-3--(3)-(3)-(3)-(3)-(3)------------------|
|------------------------9-------------|-------------9----------9------9---------|
|-9---9---9---9---9---9--9--9-9-9--9-9-|-9---9---9---9---9---9--9--9-9-9--9-9----|
|--------------------------------------|-----------------------------------------|
|--------------------------------------|-----------------------------------------|


   E.         E.         E.         E.           E.         E.         E.         E.
|----------------------------------------------|---------------------------------------------|
|----------------------------------------------|---------------------------------------------|
|----------------------------------------------|---------------------------------------------|
|----------------------------------------------|---------------------------------------------|
|--5----------4----------5----------0----------|-5----------4----------5----------0----------|
|
|  S   S   S  S   S   S  S   S   S  S   S   S    S   S   S  S   S   S  S   S   S  S   S   S
|--3--(3)-(3)-3--(3)-(3)-3--(3)-(3)-3--(3)-(3)-|-3--(3)-(3)-3--(3)-(3)-3--(3)-(3)-3--(3)-(3)-|
|-------------9---------------------9----------|------------9---------------------9----------|
|--9---9---9--9---9---9--9---9---9--9---9---9--|-9---9---9--9---9---9--9---9---9--9---9---9--|
|-11-------------------------------------------|---------------------------------------------|
|----------------------------------------------|---------------------------------------------|


                                                                                D.S. al Coda
  E.         E.         E.         E.           E.         E.         E.         E.
|---------------------------------------------|------------------------------------------------||
|---------------------------------------------|------------------------------------------------||
|---------------------------------------------|------------------------------------------------||
|---------------------------------------------|------------------------------------------------||
|-7----------6----------7----------0----------|-7----------6----------7----------0-------------||
|
| S   S   S  S   S   S  S   S   S  S   S   S    S   S   S  S   S   S  S   S   S  S   S   S
|-3--(3)-(3)-3--(3)-(3)-3--(3)-(3)-3--(3)-(3)-|-3--(3)-(3)-3--(3)-(3)-3--(3)-(3)-3--(3)-(3)----||
|------------9---------------------9----------|------------9---------------------9-------------||
|-9---9---9--9---9---9--9---9---9--9---9---9--|-9---9---9--9---9---9--9---9---9--9---9---9-----||
|---------------------------------------------|------------------------------------------------||
|---------------------------------------------|------------------------------------------------||


  &
  S  S  S S S S  S  S  S  S  S  S   S  S  S S S S  S  S  S  S  S  S
|---------------------------------|---------------------------------|
|---------------------------------|---------------------------------|
|---------------------------------|---------------------------------|
|---------------------------------|---------------------------------|
|-5--0--4-5-4-0--5--0--4--5--4--0-|-5--0--4-5-4-0--5--0--4--5--4--0-|
|
| S  S  S S S S  S  S  S  S  S  S   S  S  S S S S  S  S  S  S  S  S
|-3-(3)---------------------------|-3-(3)---------------------------|
|-9-------------------------------|-9-------------------------------|
|-9--9--9-9-9-9--9--9--9--9--9--9-|-9--9--9-9-9-9--9--9--9--9--9--9-|
|---------------15-15-15-15-15-15-|---------------15-15-15-15-15-15-|
|---------------------------------|---------------------------------|


  S  S  S S S S  S  S  S  S  S  S   S  S  S S S S  S  S S S  S  S
|---------------------------------|----------------------------------|
|---------------------------------|----------------------------------|
|---------------------------------|----------------------------------|
|---------------------------------|----------------------------------|
|-7--0--6-7-6-0--7--0--6--7--6--0-|-7--0--6-7-6-0--7--0-6-7--6--0----|
|
| S  S  S S S S  S  S  S  S  S  S   S  S  S S S S  S  S S S  S  S
|-3-(3)---------------------------|-3-(3)----------------------------|
|-9-------------------------------|-9-------------------9-9----------|
|-9--9--9-9-9-9--9--9--9--9--9--9-|-9--9--9-9-9-9--9--9-9-9--9--9----|
|---------------15-15-15-15-15-15-|---------------15-15-----15-15----|
|---------------------------------|----------------------------------|


  S  S  S S S S  S  S  S  S  S  S   S  S  S S S S  S  S  S  S  S  S
|---------------------------------|---------------------------------|
|---------------------------------|---------------------------------|
|---------------------------------|---------------------------------|
|---------------------------------|---------------------------------|
|-5--0--4-5-4-0--5--0--4--5--4--0-|-5--0--4-5-4-0--5--0--4--5--4--0-|
|
| S  S  S S S S  S  S  S  S  S  S   S  S  S S S S  S  S  S  S  S  S
|-3-(3)---------------------------|-3-(3)---------------------------|
|-9-------------------------------|-9-------------------------------|
|-9--9--9-9-9-9--9--9--9--9--9--9-|-9--9--9-9-9-9--9--9--9--9--9--9-|
|---------------15-15-15-15-15-15-|---------------15-15-15-15-15-15-|
|---------------------------------|---------------------------------|


  S  S  S S S S  S  S  S  S  S  S   S  S  S S S S  S  S S S  S  S
|---------------------------------|----------------------------------||
|---------------------------------|----------------------------------||
|---------------------------------|----------------------------------||
|---------------------------------|----------------------------------||
|-7--0--6-7-6-0--7--0--6--7--6--0-|-7--0--6-7-6-0--7--0-6-7--6--0----||
|
| S  S  S S S S  S  S  S  S  S  S   S  S  S S S S  S  S S S  S  S
|-3-(3)---------------------------|-3-(3)----------------------------||
|-9-------------------------------|-9-------------------9-9----------||
|-9--9--9-9-9-9--9--9--9--9--9--9-|-9--9--9-9-9-9--9--9-9-9--9--9----||
|---------------15-15-15-15-15-15-|---------------15-15-----15-15----||
|---------------------------------|----------------------------------||


   E.          E.         E.          E.           E.          E.         E.          E.
|------------------------------------------------|-----------------------------------------------|
|------------------------------------------------|-----------------------------------------------|
|------------------------------------------------|-----------------------------------------------|
|------------------------------------------------|-----------------------------------------------|
|--5-----------4----------5-----------0----------|-5-----------4----------5-----------0----------|
|
|  S   S   S   S   S   S  S   S   S   S   S   S    S   S   S   S   S   S  S   S   S   S   S   S
|--3--(3)-(3)-(3)-(3)-(3)-3--(3)-(3)-(3)-(3)-(3)-|-3--(3)-(3)-(3)-(3)-(3)-3--(3)-(3)-(3)-(3)-(3)-|
|-------------------------9----------------------|-------------9----------9-----------9----------|
|--9---9---9---9---9---9--9---9---9---9---9---9--|-9---9---9---9---9---9--9---9---9---9---9---9--|
|-11---------------------------------------------|-----------------------------------------------|
|------------------------------------------------|-----------------------------------------------|


  E.          E.         E.          E.           E.          E.         E.          E.
|-----------------------------------------------|--------------------------------------------------|
|-----------------------------------------------|--------------------------------------------------|
|-----------------------------------------------|--------------------------------------------------|
|-----------------------------------------------|--------------------------------------------------|
|-7-----------6----------7-----------0----------|-7-----------6----------7-----------0-------------|
|
| S   S   S   S   S   S  S   S   S   S   S   S    S   S   S   S   S   S  S   S   S   S   S   S
|-3--(3)-(3)-(3)-(3)-(3)-3--(3)-(3)-(3)-(3)-(3)-|-3--(3)-(3)-(3)-(3)-(3)-3--(3)-(3)-(3)-(3)-(3)----|
|------------------------9----------------------|-------------9----------9-----------9---9---9-----|
|-9---9---9---9---9---9--9---9---9---9---9---9--|-9---9---9---9---9---9--9---9---9---9---9---9-----|
|-----------------------------------------------|--------------------------------------------------|
|-----------------------------------------------|--------------------------------------------------|


   E.         E.         E.         E.           E.         E.         E.         E.
|----------------------------------------------|---------------------------------------------|
|----------------------------------------------|---------------------------------------------|
|----------------------------------------------|---------------------------------------------|
|----------------------------------------------|---------------------------------------------|
|--5----------4----------5----------0----------|-5----------4----------5----------0----------|
|
|  S   S   S  S   S   S  S   S   S  S   S   S    S   S   S  S   S   S  S   S   S  S   S   S
|--3--(3)-(3)-3--(3)-(3)-3--(3)-(3)-3--(3)-(3)-|-3--(3)-(3)-3--(3)-(3)-3--(3)-(3)-3--(3)-(3)-|
|-------------9---------------------9----------|------------9---------------------9----------|
|--9---9---9--9---9---9--9---9---9--9---9---9--|-9---9---9--9---9---9--9---9---9--9---9---9--|
|-11-------------------------------------------|---------------------------------------------|
|----------------------------------------------|---------------------------------------------|


  E.         E.         E.         E.           E.         E.         E.         E.
|---------------------------------------------|------------------------------------------------||
|---------------------------------------------|------------------------------------------------||
|---------------------------------------------|------------------------------------------------||
|---------------------------------------------|------------------------------------------------||
|-7----------6----------7----------0----------|-7----------6----------7----------0-------------||
|
| S   S   S  S   S   S  S   S   S  S   S   S    S   S   S  S   S   S  S   S   S  S   S   S
|-3--(3)-(3)-3--(3)-(3)-3--(3)-(3)-3--(3)-(3)-|-3--(3)-(3)-3--(3)-(3)-3--(3)-(3)-3--(3)-(3)----||
|------------9---------------------9----------|------------9---------------------9-------------||
|-9---9---9--9---9---9--9---9---9--9---9---9--|-9---9---9--9---9---9--9---9---9--9---9---9-----||
|---------------------------------------------|------------------------------------------------||
|---------------------------------------------|------------------------------------------------||


 Bridge
  Even Faster Q=150
 4/4
  W                  +W
|------------------|--------------------|
|------------------|--------------------|
|------------------|--------------------|
|------------------|--------------------|
|-0----------------|-(0)----------------|
|
| Q  Q  Q  S S S S    Q   Q  Q  S S S S
|------------------|--------------------|
|----------9-9-9-9-|------------5-5-5-5-|
|-9--9--9----------|--9---9--9----------|
|------------------|--------------------|
|------------------|--------------------|


  +W                   +W
|--------------------|--------------------||
|--------------------|--------------------||
|--------------------|--------------------||
|--------------------|--------------------||
|-(0)----------------|-(0)----------------||
|
|  Q   Q  Q  S S S S    Q   Q  Q  S S S S
|--------------------|--------------------||
|------------9-9-9-9-|------------5-5-5-5-||
|--9---9--9----------|--9---9--9----------||
|--------------------|--------------------||
|--------------------|--------------------||

[ Tab from: http://www.guitaretab.com/n/nevermore/75308.html ]
 3/4
  E.      S   H                            E.      S   H
|----------------------------------------|----------------------------------------|
|----------------------------------------|----------------------------------------|
|-8-------8---8--------------------------|-8-------8---8--------------------------|
|----------------------------------------|----------------------------------------|
|-6-------6---6--------------------------|-6-------6---6--------------------------|
|
| S  S S +S  +E   S   S   S   S   S   S    S  S S +S  +E   S   S   S   S   S   S
|-3--3-3-(3)-(3)-(3)-(3)-(3)-(3)-(3)-(3)-|-3--3-3-(3)-(3)-(3)-(3)-(3)-(3)-(3)-(3)-|
|-----------------9---9---8---7---6---5--|-----------------9---9---8---7---6---5--|
|-9--9-9---------------------------------|-9--9-9---------------------------------|
|----------------------------------------|----------------------------------------|
|----------------------------------------|----------------------------------------|


  E.      S   H                            E.      S   H
|----------------------------------------|------------------------------------------|
|----------------------------------------|------------------------------------------|
|-8-------8---8--------------------------|-8-------8---8----------------------------|
|----------------------------------------|------------------------------------------|
|-6-------6---6--------------------------|-6-------6---6----------------------------|
|
| S  S S +S  +E   S   S   S   S   S   S    S  S S +S  +E   S   S   S   S   S   S
|-3--3-3-(3)-(3)-(3)-(3)-(3)-(3)-(3)-(3)-|-3--3-3-(3)-(3)-(3)-(3)-(3)-(3)-(3)-(3)---|
|-----------------9---9---8---7---6---5--|-----------------9---9---8---7---6---5----|
|-9--9-9---------------------------------|-9--9-9-----------------------------------|
|----------------------------------------|------------------------------------------|
|----------------------------------------|------------------------------------------|


  E.   S H         E.   S H         E.   S H         E.   S H
|----------------|----------------|----------------|-----------------||
|----------------|----------------|----------------|-----------------||
|-8----8-8-------|-8----8-8-------|-8----8-8-------|-8----8-8--------||
|----------------|----------------|----------------|-----------------||
|-6----6-6-------|-6----6-6-------|-6----6-6-------|-6----6-6--------||
|
| E  E   E E E E   E  E   E E E E   E  E   E E E E   E  E   E E E E
|-3--0---0-0-0-0-|-3--0---0-0-0-0-|-3--0---0-0-0-0-|-3--0---0-0-0-0--||
|----------------|----------------|----------------|-----------------||
|----------------|----------------|----------------|-----------------||
|----------------|----------------|----------------|-----------------||
|----------------|----------------|----------------|-----------------||


    S  S   S  S S S S S S S S S   S  S   S  S S S S S S S S S
||------------------------------|-----------------------------|
||o-----------------------------|-----------------------------|
||------------------------------|-----------------------------|
||o-4---------3-----4-----5-----|-4---------4-----4-----2-----|
||-----3---0----2-0---3-0---4-0-|----3---0----3-0---3-0---1-0-|
|
|   S  S   S  S S S S S S S S S   S  S   S  S S S S S S S S S
||--3-(3)-(3)-------------------|-3-(3)-(3)-------------------|
||o-9--9---9--9-9-9-9-9-9-9-9-9-|-9--9---9--9-9-9-9-9-9-9-9-9-|
||--9--9---9--9-9-9-9-9-9-9-9-9-|-9--9---9--9-9-9-9-9-9-9-9-9-|
||o-----------------------------|-----------------------------|
||------------------------------|-----------------------------|


  S  S   S  S S S S S S S S S   S  S   S  S S S S S S S S S
|-----------------------------|--------------------------------|
|-----------------------------|--------------------------------|
|-----------------------------|--------------------------------|
|-4------3--------4-----5-----|-4---------4-----7-----7--------|
|----3------0-2-0---3-0---4-0-|----3---0----3-0---6-0---6-0----|
|
| S  S   S  S S S S S S S S S   S  S   S  S S S S S S S S S
|-3-(3)-(3)-------------------|-3-(3)-(3)----------------------|
|-9--9---9--9-9-9-9-9-9-9-9-9-|-9--9---9--9-9-9-9-9-9-9-9-9----|
|-9--9---9--9-9-9-9-9-9-9-9-9-|-9--9---9--9-9-9-9-9-9-9-9-9----|
|-----------------------------|--------------------------------|
|-----------------------------|--------------------------------|


  1.
  E.     S H                 E.     S H
|--------------------------|--------------------------|
|--------------------------|--------------------------|
|-8------8-8---------------|-8------8-8---------------|
|--------------------------|--------------------------|
|-6------6-6---------------|-6------6-6---------------|
|
| S  S S S S S S S S S S S   S  S S S S S S S S S S S
|-3----0---0---0---0---0---|-3----0---0---0---0---0---|
|-9--9-9-9-9-9-9-9-9-9-9-9-|-9--9-9-9-9-9-9-9-9-9-9-9-|
|-9--9-9-9-9-9-9-9-9-9-9-9-|-9--9-9-9-9-9-9-9-9-9-9-9-|
|--------------------------|--------------------------|
|--------------------------|--------------------------|


  E.     S H                 E.     S H
|--------------------------|------------------------------||
|--------------------------|-----------------------------o||
|-8------8-8---------------|-8------8-8-------------------||
|--------------------------|-----------------------------o||
|-6------6-6---------------|-6------6-6-------------------||
|
| S  S S S S S S S S S S S   S  S S S S S S S S S S S
|-3----0---0---0---0---0---|-3----0---0---0---0---0-------||
|-9--9-9-9-9-9-9-9-9-9-9-9-|-9--9-9-9-9-9-9-9-9-9-9-9----o||
|-9--9-9-9-9-9-9-9-9-9-9-9-|-9--9-9-9-9-9-9-9-9-9-9-9-----||
|--------------------------|-----------------------------o||
|--------------------------|------------------------------||


  2.
 4/4
  E  E  E  E  E  E  E  E    E  E  E  E  E  E  E  E
|------------------------|-------------------------|
|------------------------|-------------------------|
|------------------------|-----8--8--8--8--8--8--8-|
|-1--1--1--1--1--1--1--1-|--1--7--7--7--7--7--7--7-|
|-0--0--0--0--0--0--0--0-|--0--0--0--0--0--0--0--0-|
|
| E  E  E  E  E  E  E  E    E  E  E  E  E  E  E  E
|-3----------------------|-------------------------|
|------------------------|--------9--9--9--9--9--9-|
|----9--9--9--9--9--9--9-|--9--9--9--9--9--9--9--9-|
|---15-15-15-15-15-15-15-|-15-15-15-15-15-15-15-15-|
|------------------------|-------------------------|


   7/4
    Q   E E E E   Q   E E E E   Q        4x
||---------------------------------------||
||o-------------------------------------o||
||---------------------------------------||
||o-------------------------------------o||
||--5\--0-0-1-3---5\--0-0-1-3---3--------||
|
|   Q   E E E S S Q   E E E S S E.  S    4x
||--3---------------------------3--(3)---||
||o---------9-------------9-------------o||
||--9---9-9---9-9-9---9-9---9-9-9---9----||
||o-------------------------------------o||
||---------------------------------------||


   4/4
    E      S   E     S  E   S E.     S S S S   S S  E   S  E    S E S E   S S S
||-------------------------------------------|----------------------------------|
||o------------------------------------------|----------------------------------|
||-------------------------------------------|----------------------------------|
||o-9------7---9-----7--9---7-9------7-7-7-7-|-7-7--9---7--9----7-9-7-9---7-7-7-|
||-------------------------------------------|----------------------------------|
|
|   S  S   S   S  S +S  S S E    S S S S S S   S S  S S S +S  S S E S S S S S S
||--3-(3)-(3)-(3)----------------------------|----------------------------------|
||o---------------9-(9)--------------9-------|----------9-(9)-----------9-------|
||--9--9-------9--9-----9-9------9---9-9-9-9-|-9-9----9-9-----9-9---9---9-9-9-9-|
||o-------15---------------------------------|-----15---------------------------|
||-------------------------------------------|----------------------------------|


  S S  E   S  E    S E S E   S S S    E.     E.      E.     E.     E   E
|----------------------------------|-------------------------------------------||
|----------------------------------|------------------------------------------o||
|----------------------------------|----------------10------9------7-----------||
|-7-7--9---7--9----7-9-7-9---7-7-7-|-10------9-------------------------7------o||
|----------------------------------|-------------------------------------------||
|
| S S  S S S +S  S S E S S S S S S    S  S S S  S S  S  S S S  S S S S S S
|----------------------------------|--3------3-------3------3------3---3-------||
|----------9-(9)-----------9-------|------------------------------------------o||
|-9-9----9-9-----9-9---9---9-9-9-9-|--9--9-9-9--9-9--9--9-9-9--9-9-9-9-9-9-----||
|-----15---------------------------|------------------------------------------o||
|----------------------------------|-------------------------------------------||


  E E  E  Q   E S E   S   E  S  S E  Q   E S E   S
|-----------------------|--------------------------|
|-----11----------------|--------------------------|
|-----------------------|-7------------------------|
|-9----------10---7-----|------10-9-----10---7-----|
|-----------------------|--------------------------|
|
| Q    Q.     Q     E     E.    S Q.     Q     E
|-----------------------|-0--------------0---------|
|------9----------------|---------9------------9---|
|-9-----------9-----9---|-9-----9--------9---------|
|-----------------------|--------------------------|
|-----------------------|--------------------------|


                               2/4
  S  S  S S  S  Q   E   S E E    S  S  S  S  S E.
|-----------------------------|--------------------|
|-----------10----------------|--------------------|
|-----------------------------|--------------------|
|-8--8--8-8--------10-----7---|-10-10-10-10-10-9\--|
|-----------------------------|--------------------|
|
| S  S  S S  Q.       Q     E    S  S  S  S  S E.
|-0-(0)---------------0-------|--0--0--0--0--0-0---|
|------------9--------------9-|--------------------|
|-9--9--9-9-----------9-------|--9--9--9--9--9-9---|
|-----------------------------|--------------------|
|-----------------------------|--------------------|


 4/4
  E E  E  Q   E S E   S   E  S    S E  Q   E S E   S
|-----------------------|----------------------------|
|-----11----------------|----------------------------|
|-----------------------|-7--------------------------|
|-9----------10---7-----|--------10-9-----10---7-----|
|-----------------------|----------------------------|
|
| Q    Q.     Q     E     E.   a  S Q.     Q     E
|-3---(3)-----0-----0---|------------------0---------|
|------9----------------|-----------9------------9---|
|-9-----------9-----9---|-9----9--9--------9---------|
|-----------------------|----------------------------|
|-----------------------|----------------------------|


                                  2/4
  S  S  S S  S  Q   E   S E S  S    S  S   S  S  S  E.
|--------------------------------|---------------------||
|-----------10-------------------|---------------------||
|--------------------------------|---------------------||
|-8--8--8-8--------10-----7---10-|-10-10--10-10-10--9\-||
|--------------------------------|---------------------||
|
| S  S  S S  Q.       Q     E       S  S   S  S  S  E.
|-0-(0)------3--------0----------|--0-(0)--0--0--0-(0)-||
|------------9--------------9----|---------------------||
|-9--9--9-9-----------9----------|--9--9---9--9--9--9--||
|--------------------------------|---------------------||
|--------------------------------|---------------------||


   4/4
                      |----3-----|                  |----3-----|
    H                +Q     Q    Q    E.   S Q     +Q     Q    Q
||---------------------------------|-----------------------------|
||o--------------------------------|-----------------------------|
||--8----------------(8)----9----6-|-11----9-8-----(8)----9----6-|
||o--------------------------------|-----------------------------|
||---------------------------------|-----------------------------|
|
|   E.  a   S  E. E.     E.   E.      E. a S E. E.     E.   E.
||--3--(3)-(3)-0---------0---------|--0------0---------0---------|
||o------------9--9-----------9----|---------9--9-----------9----|
||--9---9---9------------9---------|--9--9-9-----------9---------|
||o--------------------------------|-----------------------------|
||---------------------------------|-----------------------------|


                               2/4
                |----3----|
  H            +Q     Q   Q     S S S S S S S   S
|-----------------------------|-------------------------||
|-----------------------------|------------------------o||
|-7------------(7)----9---6---|-9-9-9-9-9-8-----x-------||
|-----------------------------|------------------------o||
|-----------------------------|-------------------------||
|
|                                           |--3--|
| E. a S E. E.     E.   E   S   S S S S S S S S   S
|-0---------0-----------0-----|-------------------------||
|--------9--9-----------9---9-|-9-9-9-9-9-9------------o||
|-9--9-9-----------9----------|-------------9-9---9-----||
|-----------------------------|------------------------o||
|-----------------------------|-------------------------||


            4/4
   |--3--|
   Q  Q  Q   E E E  Q  E S E   S   E  S S E  Q  E S E   S
|----------|---------------------|------------------------|
|----------|---------------------|------------------------|
|----------|-----4---------------|------------------------|
|--5--4--3-|---------------------|------------------------|
|--3--2--1-|-2---------3---0-----|-5----3-2-----3---0-----|
|
|  |--3--|
|  Q  Q  Q   Q   Q.    Q     E     E.   S Q.    Q     E
|----------|-3-------------------|-0------------0---------|
|--9--9--9-|-----9---------------|--------9-----------9---|
|--9--9--9-|-9---------9-----9---|-9----9-------9---------|
|-15-15-15-|---------------------|------------------------|
|----------|---------------------|------------------------|


                           2/4
  S  S  S S E  Q  E S S E   S S S S S E.
|-------------------------|----------------|
|-------------------------|----------------|
|-----------3-------------|----------------|
|-------------------------|----------------|
|-1--1--1-1-------3---0---|-3-3-3-3-3-2----|
|
| S  S  S S Q.    Q     E   S S S S S E.
|-0-(0)-----------0-------|-0-0-0-0-0-0----|
|-----------9-----------9-|----------------|
|-9--9--9-9-------9-------|-9-9-9-9-9-9----|
|-------------------------|----------------|
|-------------------------|----------------|


 4/4
  E E  E  Q  E S E   S   E  S   S E  Q  E S E   S
|----------------------|--------------------------|
|----------------------|--------------------------|
|------4---------------|--------------------------|
|----------------------|--------------------------|
|-2----------3---0-----|-5------3-2-----3---0-----|
|
| Q    Q.    Q     E     E.   a S Q.    Q     E
|-3---(3)----0-----0---|----------0-----0---------|
|------9---------------|----------9-----------9---|
|-9----------9-----9---|-9----9-9-------9---------|
|----------------------|--------------------------|
|----------------------|--------------------------|


                           2/4
  S  S  S S E  Q  E S S E   S  S  S S S  E.
|-------------------------|-----------------|
|-------------------------|-----------------|
|-----------3-------------|-----------------|
|-------------------------|-----------------|
|-1--1--1-1-------3---0---|-3--3--3-3-3--2--|
|
| S  S  S S Q.    Q     E   S  S  S S S  E.
|-0-(0)-----3-----0-------|-0-(0)-0-0-0-(0)-|
|-----------9-----------9-|-----------------|
|-9--9--9-9-------9-------|-9--9--9-9-9--9--|
|-------------------------|-----------------|
|-------------------------|-----------------|


 Guitar Break - Loomis
 4/4
  W                                    +E     E  E  E  Q.      E
|------------------------------------|---------------------------|
|------------------------------------|---------------------------|
|------------------------------------|---------------------------|
|------------------------------------|---------------------------|
|-3----------------------------------|-(3)----3--2--3--6-------2-|
|
|       <
| Q  E  S  S  S  S  S  S  S  S  S  S    S  S  E  E  E  Q    E  E
|------------------------------------|---------------------------|
|----9--------------------9----------|--9-------------------9----|
|-9----12-12-12-12-12-12-12-12-12-12-|-12-----9--9--9--9---(9)-9-|
|------------------------------------|-------15-15-15-15---------|
|------------------------------------|---------------------------|


                                       |-3--|
  W                                   +Q  Q Q  Q.      E
|-----------------------------------|--------------------|
|-----------------------------------|--------------------|
|-----------------------------------|--------------------|
|-----------------------------------|--------------------|
|-3---------------------------------|-(3)-3-2--6-------3-|
|
|       <
|                                      |-3--|
| Q  E  S  S  S  S  S  S S  S  S  S    Q  Q Q  Q    E  E
|-----------------------------------|--------------------|
|----9-------------------9----------|--9--9-9-------9----|
|-9----12-12-12-12-12-12---12-12-12-|-12--9-9--9---(9)-9-|
|-----------------------------------|---------15---------|
|-----------------------------------|--------------------|


  W                                    +E     E  E  E  Q.      E
|------------------------------------|---------------------------|
|------------------------------------|---------------------------|
|------------------------------------|---------------------------|
|------------------------------------|---------------------------|
|-6----------------------------------|-(6)----6--5--6--9-------5-|
|
|       <
| Q  E  S  S  S  S  S  S  S  S  S  S    S  S  E  E  E  Q    E  E
|------------------------------------|---------------------------|
|----9--------------------9----------|--9-------------------9----|
|-9----12-12-12-12-12-12-12-12-12-12-|-12-----9--9--9--9---(9)-9-|
|------------------------------------|-------15-15-15-15---------|
|------------------------------------|---------------------------|


                                       |-3--|
  W                                   +Q  Q Q  H
|-----------------------------------|-------------------||
|-----------------------------------|-------------------||
|-----------------------------------|-------------------||
|-----------------------------------|-------------------||
|-6---------------------------------|-(6)-6-5--9--------||
|
|       <
|                                      |-3--|
| Q  E  S  S  S  S  S  S S  S  S  S    Q  Q Q  Q   E  E
|-----------------------------------|-------------------||
|----9-------------------9----------|--9--9-9------9----||
|-9----12-12-12-12----12---12-12-12-|-12--9-9--9--(9)-9-||
|------------------15---------------|---------15--------||
|-----------------------------------|-------------------||


     Q        S  S  S  S  S  S  S  S  S  S  S  S
||-----------------------------------------------|
||o----------------------------------------------|
||-----------------------------------------------|
||o-10-------10-10-10-10-10-10-10-10-10-10-10-10-|
||-----------------------------------------------|
|
|    S S S S  S  S  S  S  S  S  S  S  S  S  S  S
||-----------------------------------------------|
||o--9--------9-----------9-----------9----------|
||---9-9-9-9--9--9--9--9--9--9--9--9--9--9--9--9-|
||o----------------------------------------------|
||-----------------------------------------------|


   S  S  S  S  S  S  S  S  Q        E    E
|---------------------------------------------|
|---------------------------------------------|
|---------------------------------------------|
|-10-10-10-10-10-10-10-10-13-------12---10----|
|---------------------------------------------|
|
|  S  S  S  S  S  S  S  S  S S S S  S S  S S
|---------------------------------------------|
|--9-----------9-----------9--------9---------|
|--9--9--9--9--9--9--9--9--9-9-9-9--9-9--9-9--|
|---------------------------------------------|
|---------------------------------------------|


  Q       S S S S S S S S S S S S   S S S S S S S S  Q        E   E
|---------------------------------|-----------------------------------|
|---------------------------------|-----------------------------------|
|---------------------------------|-----------------------------------|
|-9-------9-9-9-9-9-9-9-9-9-9-9-9-|-9-9-9-9-9-9-9-9-12-------11---9---|
|---------------------------------|-----------------------------------|
|
| S S S S S S S S S S S S S S S S   S S S S S S S S  S S S S  S S S S
|---------------------------------|-----------------------------------|
|-9-------9-------9-------9-------|-9-------9--------9--------9-------|
|-9-9-9-9-9-9-9-9-9-9-9-9-9-9-9-9-|-9-9-9-9-9-9-9-9--9-9-9-9--9-9-9-9-|
|---------------------------------|-----------------------------------|
|---------------------------------|-----------------------------------|


  Q       S S S S S S S S S S S S   S S S S S S S S  Q        E   E
|---------------------------------|-----------------------------------|
|---------------------------------|-----------------------------------|
|---------------------------------|-----------------------------------|
|-8-------8-8-8-8-8-8-8-8-8-8-8-8-|-8-8-8-8-8-8-8-8-11-------10---8---|
|---------------------------------|-----------------------------------|
|
| S S S S S S S S S S S S S S S S   S S S S S S S S  S S S S  S S S S
|---------------------------------|-----------------------------------|
|-9-------9-------9-------9-------|-9-------9--------9--------9-------|
|-9-9-9-9-9-9-9-9-9-9-9-9-9-9-9-9-|-9-9-9-9-9-9-9-9--9-9-9-9--9-9-9-9-|
|---------------------------------|-----------------------------------|
|---------------------------------|-----------------------------------|


  1.
  Q       S S S S S S S S S S S S   S S S S S S  S S S S S S S S S S
|---------------------------------|-----------------------------------||
|---------------------------------|----------------------------------o||
|---------------------------------|-----------------------------------||
|-7-------7-7-7-7-7-7-7-7-7-7-7-7-|-7-7-7-7-7-7--7-7-7-7-7-7-7-7-7-7-o||
|---------------------------------|-----------------------------------||
|
| S S S S S S S S S S S S S S S S   S S S S S S  S S S S S S S S S S
|---------------------------------|-----------------------------------||
|-9-------9-------9-------9-------|-9-----9-9-9------9-9-9---9-9-9-9-o||
|-9-9-9-9-9-9-9-9-9-9-9-9-9-9-9-9-|-9-9-9-9-9-9----9-9-9-9-9-9-9-9-9--||
|---------------------------------|-------------17-------------------o||
|---------------------------------|-----------------------------------||


  2.
  Q       S S S S S S S S S S S S
|---------------------------------|
|---------------------------------|
|---------------------------------|
|-7-------7-7-7-7-7-7-7-7-7-7-7-7-|
|---------------------------------|
|
| S S S S S S S S S S S S S S S S
|---------------------------------|
|-9-------9-------9-------9-------|
|-9-9-9-9-9-9-9-9-9-9-9-9-9-9-9-9-|
|---------------------------------|
|---------------------------------|


  S S S S S S S S S S S S S S S S    S S E   S S E   S S E   S S E
|---------------------------------||---------------------------------||
|---------------------------------||---------------------------------||
|---------------------------------||---------------------------------||
|-7-7-7-7-7-7-7-7-7-7-7-7-7-7-7-7-||---------------------------------||
|---------------------------------||-6-6-0---6-6-0---6-6-0---6-6-0---||
|
| S S S S S S S S S S S S S S S S    S S S S S S S S S S S S S S S S
|---------------------------------||---------------------------------||
|-9-------9-------9-------9-------||-9-------9-------9-------9-------||
|-9-9-9-9-9-9-9-9-9-9-9-9-9-9-9-9-||-9-9-9-9-9-9-9-9-9-9-9-9-9-9-9-9-||
|---------------------------------||---------------------------------||
|---------------------------------||---------------------------------||


 Guitar Solo - Loomis
  S S S S S S S S S S S S S S S S   S S S S S S S S  S  S  S  S S S S S
|---------------------------------|-------------------------------------|
|---------------------------------|-------------------------------------|
|---------------------------------|-----------------------------7-7-7-7-|
|-7-7-7-7-7-7-7-7-7-7-7-7-6-6-6-6-|-7-7-7-7-9-9-9-9-10-10-10-10---------|
|---------------------------------|-------------------------------------|
|
| S S S S S S S S S S S S S S S S   S S S S S S S S  S  S  S  S S S S S
|---------------------------------|-------------------------------------|
|-----------------9---------------|------------------9------------------|
|-9-9-9-9-9-9-9-9-9-9-9-9-9-9-9-9-|-9-9-9-9-9-9-9-9--9--9--9--9-9-9-9-9-|
|---------------------------------|-------------------------------------|
|---------------------------------|-------------------------------------|


  S S S S S S S S S S S S S S S S   S S S S S S S S  S  S  S  S S S S S
|---------------------------------|-------------------------------------|
|---------------------------------|-------------------------------------|
|---------------------------------|-------------------------------------|
|---------------------------------|-------------------------------------|
|-7-7-7-7-7-7-7-7-7-7-7-7-6-6-6-6-|-7-7-7-7-9-9-9-9-10-10-10-10-7-7-7-7-|
|
| S S S S S S S S S S S S S S S S   S S S S S S S S  S  S  S  S S S S S
|---------------------------------|-------------------------------------|
|-----------------9---------------|------------------9------------------|
|-9-9-9-9-9-9-9-9-9-9-9-9-9-9-9-9-|-9-9-9-9-9-9-9-9--9--9--9--9-9-9-9-9-|
|---------------------------------|-------------------------------------|
|---------------------------------|-------------------------------------|


   S  S  S  S  S  S  S  S  S  S  S  S S S S S
|---------------------------------------------|
|---------------------------------------------|
|---------------------------------------------|
|---------------------------------------------|
|-10-10-10-10-10-10-10-10-10-10-10-10-9-9-9-9-|
|
|  S  S  S  S  S  S  S  S  S  S  S  S S S S S
|---------------------------------------------|
|--------------------------9------------------|
|--9--9--9--9--9--9--9--9--9--9--9--9-9-9-9-9-|
|---------------------------------------------|
|---------------------------------------------|


   S  S  S  S S S S S S S S S S S S S
|-------------------------------------|
|-------------------------------------|
|-------------------------------------|
|-------------7-7-7-7-8-8-8-8-7-7-7-7-|
|-10-10-10-10-------------------------|
|
|  S  S  S  S S S S S S S S S S S S S
|-------------------------------------|
|---------------------9---------------|
|--9--9--9--9-9-9-9-9-9-9-9-9-9-9-9-9-|
|-------------------------------------|
|-------------------------------------|


  S S S S S S S S S S S S S S S S   S S S S S S S S S S S S S S S S
|---------------------------------|---------------------------------||
|---------------------------------|---------------------------------||
|---------------------------------|---------------------------------||
|---------------------------------|---------------------------------||
|-5-5-5-5-5-5-5-5-5-5-5-5-4-4-4-4-|-5-5-5-5-7-7-7-7-8-8-8-8-5-5-5-5-||
|
| S S S S S S S S S S S S S S S S   S S S S S S S S S S S S S S S S
|---------------------------------|---------------------------------||
|-----------------9---------------|-----------------9-------9-8-7-6-||
|-9-9-9-9-9-9-9-9-9-9-9-9-9-9-9-9-|-9-9-9-9-9-9-9-9-9-9-9-9-9-9-9-9-||
|---------------------------------|---------------------------------||
|---------------------------------|---------------------------------||


  S S S S S S S S S S S S S S S S   S S S S S S S S  S  S  S  S S S S S
|---------------------------------|-------------------------------------|
|---------------------------------|-------------------------------------|
|---------------------------------|-----------------------------7-7-7-7-|
|-7-7-7-7-7-7-7-7-7-7-7-7-6-6-6-6-|-7-7-7-7-9-9-9-9-10-10-10-10---------|
|---------------------------------|-------------------------------------|
|
| S S S S S S S S S S S S S S S S   S S S S S S S S  S  S  S  S S S S S
|---------------------------------|-------------------------------------|
|---------9---------------9-------|---------9-------------------9-------|
|-9-9-9-9-9-9-9-9-9-9-9-9-9-9-9-9-|-9-9-9-9-9-9-9-9--9--9--9--9-9-9-9-9-|
|---------------------------------|-------------------------------------|
|---------------------------------|-------------------------------------|


  S S S S S S S S S S S S S S S S   S S S S S S S S  S  S  S  S S S S S
|---------------------------------|-------------------------------------|
|---------------------------------|-------------------------------------|
|---------------------------------|-------------------------------------|
|---------------------------------|-------------------------------------|
|-7-7-7-7-7-7-7-7-7-7-7-7-6-6-6-6-|-7-7-7-7-9-9-9-9-10-10-10-10-7-7-7-7-|
|
| S S S S S S S S S S S S S S S S   S S S S S S S S  S  S  S  S S S S S
|---------------------------------|-------------------------------------|
|---------9---------------9-------|---------9-------------------9-------|
|-9-9-9-9-9-9-9-9-9-9-9-9-9-9-9-9-|-9-9-9-9-9-9-9-9--9--9--9--9-9-9-9-9-|
|---------------------------------|-------------------------------------|
|---------------------------------|-------------------------------------|


   S  S  S  S  S  S  S  S  S  S  S  S S S S S
|---------------------------------------------|
|---------------------------------------------|
|---------------------------------------------|
|---------------------------------------------|
|-10-10-10-10-10-10-10-10-10-10-10-10-9-9-9-9-|
|
|  S  S  S  S  S  S  S  S  S  S  S  S S S S S
|---------------------------------------------|
|--------------9----------------------9-------|
|--9--9--9--9--9--9--9--9--9--9--9--9-9-9-9-9-|
|---------------------------------------------|
|---------------------------------------------|


   S  S  S  S S S S S S S S S S S S S
|-------------------------------------|
|-------------------------------------|
|-------------------------------------|
|-------------7-7-7-7-8-8-8-8-7-7-7-7-|
|-10-10-10-10-------------------------|
|
|  S  S  S  S S S S S S S S S S S S S
|-------------------------------------|
|-------------9---------------9-------|
|--9--9--9--9-9-9-9-9-9-9-9-9-9-9-9-9-|
|-------------------------------------|
|-------------------------------------|


  S S S S S S S S S  S S S S S S S   S S S S S S S  S  S  S  S  S  S  S  S  S
|----------------------------------|------------------------------------------||
|----------------------------------|------------------------------------------||
|----------------------------------|------------------------------------------||
|----------------------------------|------------------------------------------||
|-5-5-5-5-5-5-5-5-5--5-5-5-4-4-4-4-|-5-5-5-5-7-7-7--7--8--8--8--8--5--5--5--5-||
|
| S S S S S S S S S  S S S S S S S   S S S S S S S  S  S  S  S  S  S  S  S  S
|----------------------------------|------------------------------------------||
|---------9------------9---9-------|-9-----9-9-9-9--------------5--5--5--5--5-||
|-9-9-9-9-9-9-9-9-9--9-9-9-9-9-9-9-|-9-9-9-9-9-9-9--9--9--9--9--9--9--9--9--9-||
|-------------------15-------------|---------------15-15-15-15-15-15-15-15-15-||
|----------------------------------|------------------------------------------||


 Re-Intro
  Tempo B Q=75
                                       |--3---|
  H.               Q     Q   Q   Q   E S  S   S
|----------------------|-------------------------|
|----------------------|-------------------------|
|----------------------|-------------------------|
|------------------3---|-----5-------------------|
|-0--------------------|-5-------8---1-1--1---1--|
|
|                                      |--3---|
| E  E E E S  S  E E E   E E E E E E E S  S   S
|-0--0-0-0-0-(0)-0-0-0-|-0-0-0-0-0-0-0-0-(0)-(0)-|
|------9-----------9---|-----9-------9-----------|
|-9--------9--9--------|-9-------9-----9--9---9--|
|----------------------|-------------------------|
|----------------------|-------------------------|


  H.               Q     Q   Q   Q   Q
|----------------------|-----------------------------||
|----------------------|-----------------------------||
|----------------------|-----------------------------||
|------------------3---|-----5---3s==8---------------||
|-0--------------------|-5---------------------------||
|
| E  E E E S  S  E E E   E E E E E E S a T  T   E
|-0--0-0-0-0-(0)-0-0-0-|-0-0-0-0-0-0-0-0-0-(0)-(0)---||
|------9-----------9---|-----9-------9----------9----||
|-9--------9--9--------|-9-------9-----9-9--9--------||
|----------------------|-----------------------------||
|----------------------|-----------------------------||


 Verse 4
  Tempo C E.=150
 3/4
  E          S      S  S   S  S  S   S  S  S   S    E      S  S  S   S  E      S  S  S   S
|-------------------------------------------------|-----------------------------------------|
|-------------------------------------------------|-----------------------------------------|
|-------------------------------------------------|-----------------------------------------|
|-7----------7------------------------------------|-8------8------------5------5------------|
|-------------------0--0---0-----0---0--0--0---0--|-----------0--0---0------------0--0---0--|
|
| S  T   T   T   T  S  S   S  S  S   S  S  S   S    S  S   S  S  S   S  S  S   S  S  S   S
|-0-(0)-(0)-(0)-(0)-0-(0)-(0)-0-(0)-(0)-0-(0)-(0)-|-0-(0)-(0)-0-(0)-(0)-0-(0)-(0)-0-(0)-(0)-|
|-------------------9-------------------9-(9)-(9)-|-----------9-(9)-(9)-----------9-(9)--9--|
|-9--9---9---9---9--9--9---9--9--9---9--9--9---9--|-9--9---9--9--9---9--9--9---9--9--9---9--|
|-------------------------------------------------|-----------------------------------------|
|-------------------------------------------------|-----------------------------------------|


  E          S      S  S   S  S  S   S  S  S   S    S  S   S  S  S   S  S  S   S  S  S   S
|-------------------------------------------------|--------------------------------------------|
|-------------------------------------------------|-7-10---7-----7-----------------------------|
|-------------------------------------------------|-----------9------9--6--9---6-----6---------|
|-7----------7------------------------------------|-------------------------------8------8-----|
|-------------------0--0---0-----0---0--0--0---0--|--------------------------------------------|
|
| S  T   T   T   T  S  S   S  S  S   S  S  S   S    S  S   S  S  S   S  S  S   S  S  S   S
|-0-(0)-(0)-(0)-(0)-0-(0)-(0)-0-(0)-(0)-0-(0)-(0)-|-3-(3)-(3)-3-(3)-(3)-3-(3)-(3)-3-(3)-(3)----|
|-------------------9-------------------9-(9)-(9)-|-9-(9)-(9)-9-(9)-(9)-9-(9)-(9)-9-(9)-(9)----|
|-9--9---9---9---9--9--9---9--9--9---9--9--9---9--|-9--9---9--9--9---9--9--9---9--9--9---9-----|
|-------------------------------------------------|--------------------------------------------|
|-------------------------------------------------|--------------------------------------------|


  E          S      S  S   S  S  S   S  S  S   S    E      S  S  S   S  E      S  S  S   S
|-------------------------------------------------|-----------------------------------------|
|-------------------------------------------------|-----------------------------------------|
|-------------------------------------------------|-----------------------------------------|
|-7----------7------------------------------------|-8------8------------5------5------------|
|-------------------0--0---0-----0---0--0--0---0--|-----------0--0---0------------0--0---0--|
|
| S  T   T   T   T  S  S   S  S  S   S  S  S   S    S  S   S  S  S   S  S  S   S  S  S   S
|-0-(0)-(0)-(0)-(0)-0-(0)-(0)-0-(0)-(0)-0-(0)-(0)-|-0-(0)-(0)-0-(0)-(0)-0-(0)-(0)-0-(0)-(0)-|
|-------------------9-------------------9-(9)-(9)-|-----------9-(9)-(9)-----------9-(9)--9--|
|-9--9---9---9---9--9--9---9--9--9---9--9--9---9--|-9--9---9--9--9---9--9--9---9--9--9---9--|
|-------------------------------------------------|-----------------------------------------|
|-------------------------------------------------|-----------------------------------------|


  E          S      S  S   S  S  S   S  S  S   S    S  S   S  S S S S S S S S S
|-------------------------------------------------|--------------------------------|
|-------------------------------------------------|--------------------------------|
|-------------------------------------------------|--------------------------------|
|-7----------7------------------------------------|-7--8---8--8-5-8---8---8--------|
|-------------------0--0---0-----0---0--0--0---0--|-----------------7---5---4-0----|
|
| S  T   T   T   T  S  S   S  S  S   S  S  S   S    S  S   S  S S S S S S S S S
|-0-(0)-(0)-(0)-(0)-0-(0)-(0)-0-(0)-(0)-0-(0)-(0)-|-0-(0)-(0)----------------------|
|-------------------9-------------------9-(9)-(9)-|-----------9-9-------9-9--------|
|-9--9---9---9---9--9--9---9--9--9---9--9--9---9--|-9--9---9--9-9-9-9-9-9-9-9-9----|
|-------------------------------------------------|--------------------------------|
|-------------------------------------------------|--------------------------------|


  E          S      S  S   S  S  S   S  S  S   S    E      S  S  S   S  E      S  S  S   S
|-------------------------------------------------|-----------------------------------------|
|-------------------------------------------------|-----------------------------------------|
|-------------------------------------------------|-----------------------------------------|
|-7----------7------------------------------------|-8------8------------5------5------------|
|-------------------0--0---0-----0---0--0--0---0--|-----------0--0---0------------0--0---0--|
|
| S  T   T   T   T  S  S   S  S  S   S  S  S   S    S  S   S  S  S   S  S  S   S  S  S   S
|-0-(0)-(0)-(0)-(0)-0-(0)-(0)-0-(0)-(0)-0-(0)-(0)-|-0-(0)-(0)-0-(0)-(0)-0-(0)-(0)-0-(0)-(0)-|
|-------------------9-------------------9-(9)-(9)-|-----------9-(9)-(9)-----------9-(9)--9--|
|-9--9---9---9---9--9--9---9--9--9---9--9--9---9--|-9--9---9--9--9---9--9--9---9--9--9---9--|
|-------------------------------------------------|-----------------------------------------|
|-------------------------------------------------|-----------------------------------------|


  E          S      S  S   S  S  S   S  S  S   S    S  S   S  S  S   S  S  S   S  S  S   S
|-------------------------------------------------|--------------------------------------------|
|-------------------------------------------------|-7-10---7-----7-----------------------------|
|-------------------------------------------------|-----------9------9--6--9---6-----6---------|
|-7----------7------------------------------------|-------------------------------8------8-----|
|-------------------0--0---0-----0---0--0--0---0--|--------------------------------------------|
|
| S  T   T   T   T  S  S   S  S  S   S  S  S   S    S  S   S  S  S   S  S  S   S  S  S   S
|-0-(0)-(0)-(0)-(0)-0-(0)-(0)-0-(0)-(0)-0-(0)-(0)-|-3-(3)-(3)-3-(3)-(3)-3-(3)-(3)-3-(3)-(3)----|
|-------------------9-------------------9-(9)-(9)-|-9-(9)-(9)-9-(9)-(9)-9-(9)-(9)-9-(9)-(9)----|
|-9--9---9---9---9--9--9---9--9--9---9--9--9---9--|-9--9---9--9--9---9--9--9---9--9--9---9-----|
|-------------------------------------------------|--------------------------------------------|
|-------------------------------------------------|--------------------------------------------|


  E          S      S  S   S  S  S   S  S  S   S    E      S  S  S   S  E      S  S  S   S
|-------------------------------------------------|-----------------------------------------|
|-------------------------------------------------|-----------------------------------------|
|-------------------------------------------------|-----------------------------------------|
|-7----------7------------------------------------|-8------8------------5------5------------|
|-------------------0--0---0-----0---0--0--0---0--|-----------0--0---0------------0--0---0--|
|
| S  T   T   T   T  S  S   S  S  S   S  S  S   S    S  S   S  S  S   S  S  S   S  S  S   S
|-0-(0)-(0)-(0)-(0)-0-(0)-(0)-0-(0)-(0)-0-(0)-(0)-|-0-(0)-(0)-0-(0)-(0)-0-(0)-(0)-0-(0)-(0)-|
|-------------------9-------------------9-(9)-(9)-|-----------9-(9)-(9)-----------9-(9)--9--|
|-9--9---9---9---9--9--9---9--9--9---9--9--9---9--|-9--9---9--9--9---9--9--9---9--9--9---9--|
|-------------------------------------------------|-----------------------------------------|
|-------------------------------------------------|-----------------------------------------|


  E          S      S  S   S  S  S   S  S  S   S    S  S   S   S   S   S  S S S S S S
|-------------------------------------------------|--------------------------------------||
|-------------------------------------------------|--------------------------------------||
|-------------------------------------------------|--------------------------------------||
|-7----------7------------------------------------|-7--8---8---8---5---8----8---8--------||
|-------------------0--0---0-----0---0--0--0---0--|-----------------------7---5---4-0----||
|
| S  T   T   T   T  S  S   S  S  S   S  S  S   S    S  S   S   S   S   S  S S S S S S
|-0-(0)-(0)-(0)-(0)-0-(0)-(0)-0-(0)-(0)-0-(0)-(0)-|-0-(0)-(0)----------------------------||
|-------------------9-------------------9-(9)-(9)-|-----------(9)-(9)-(9)-9-9-9-9-9-9----||
|-9--9---9---9---9--9--9---9--9--9---9--9--9---9--|-9--9---9---9---9---9--9-9-9-9-9-9----||
|-------------------------------------------------|--------------------------------------||
|-------------------------------------------------|--------------------------------------||


   Pre-Chorus
    S  S  S S S S  S  S  S  S  S  S   S  S  S S S S  S  S  S  S  S  S
||----------------------------------|---------------------------------|
||o---------------------------------|---------------------------------|
||----------------------------------|---------------------------------|
||o---------------------------------|---------------------------------|
||--5--0--4-5-4-0--5--0--4--5--4--0-|-5--0--4-5-4-0--5--0--4--5--4--0-|
|
|   S  S  S S S S  S  S  S  S  S  S   S  S  S S S S  S  S  S  S  S  S
||--3-(3)---------------------------|-3-(3)---------------------------|
||o-9-------------------------------|-9-------------------------------|
||--9--9--9-9-9-9--9--9--9--9--9--9-|-9--9--9-9-9-9--9--9--9--9--9--9-|
||o---------------15-15-15-15-15-15-|---------------15-15-15-15-15-15-|
||----------------------------------|---------------------------------|


  S  S  S S S S  S  S  S  S  S  S   S  S  S S S S  S  S S S  S  S
|---------------------------------|-----------------------------------||
|---------------------------------|----------------------------------o||
|---------------------------------|-----------------------------------||
|---------------------------------|----------------------------------o||
|-7--0--6-7-6-0--7--0--6--7--6--0-|-7--0--6-7-6-0--7--0-6-7--6--0-----||
|
| S  S  S S S S  S  S  S  S  S  S   S  S  S S S S  S  S S S  S  S
|-3-(3)---------------------------|-3-(3)-----------------------------||
|-9-------------------------------|-9-------------------9-9----------o||
|-9--9--9-9-9-9--9--9--9--9--9--9-|-9--9--9-9-9-9--9--9-9-9--9--9-----||
|---------------15-15-15-15-15-15-|---------------15-15-----15-15----o||
|---------------------------------|-----------------------------------||


 Outro Chorus
   E.          E.         E.     E.       E.          E.         E.     E.
|---------------------------------------|--------------------------------------|
|---------------------------------------|--------------------------------------|
|---------------------------------------|--------------------------------------|
|---------------------------------------|--------------------------------------|
|--5-----------4----------5------0------|-5-----------4----------5------0------|
|
|  S   S   S   S   S   S  S  S S S  S S   S   S   S   S   S   S  S  S S S  S S
|--3--(3)-(3)-(3)-(3)-(3)---------------|-3--(3)-(3)-(3)-(3)-(3)---------------|
|-------------------------9-------------|-------------9----------9------9------|
|--9---9---9---9---9---9--9--9-9-9--9-9-|-9---9---9---9---9---9--9--9-9-9--9-9-|
|-11------------------------------------|--------------------------------------|
|---------------------------------------|--------------------------------------|


  E.          E.         E.     E.       E.          E.         E.       E.
|--------------------------------------|---------------------------------------------|
|--------------------------------------|---------------------------------------------|
|--------------------------------------|---------------------------------------------|
|--------------------------------------|---------------------------------------------|
|-7-----------6----------7------0------|-7-----------6----------7--------0-----------|
|
| S   S   S   S   S   S  S  S S S  S S   S   S   S   S   S   S  S   S  S S   S  S
|-3--(3)-(3)-(3)-(3)-(3)---------------|-3--(3)-(3)-(3)-(3)-(3)----------------------|
|------------------------9-------------|-------------9----------9--(9)-9-9-----------|
|-9---9---9---9---9---9--9--9-9-9--9-9-|-9---9---9---9---9---9--9---9--9-9---9--9----|
|--------------------------------------|------------------------------------15-15----|
|--------------------------------------|---------------------------------------------|


   E.         E.         E.         E.           E.         E.         E.         E.
|----------------------------------------------|---------------------------------------------|
|----------------------------------------------|---------------------------------------------|
|----------------------------------------------|---------------------------------------------|
|----------------------------------------------|---------------------------------------------|
|--5----------4----------5----------0----------|-5----------4----------5----------0----------|
|
|  S   S   S  S   S   S  S   S   S  S   S   S    S   S   S  S   S   S  S   S   S  S   S   S
|--3--(3)-(3)-3--(3)-(3)-3--(3)-(3)-3--(3)-(3)-|-3--(3)-(3)-3--(3)-(3)-3--(3)-(3)-3--(3)-(3)-|
|-------------9---------------------9----------|------------9---------------------9----------|
|--9---9---9--9---9---9--9---9---9--9---9---9--|-9---9---9--9---9---9--9---9---9--9---9---9--|
|-11-------------------------------------------|---------------------------------------------|
|----------------------------------------------|---------------------------------------------|


  E.         E.         E.         E.           E.         E.         E.         E.
|---------------------------------------------|------------------------------------------------||
|---------------------------------------------|------------------------------------------------||
|---------------------------------------------|------------------------------------------------||
|---------------------------------------------|------------------------------------------------||
|-7----------6----------7----------0----------|-7----------6----------7----------0-------------||
|
| S   S   S  S   S   S  S   S   S  S   S   S    S   S   S  S   S   S  S   S   S  S   S   S
|-3--(3)-(3)-3--(3)-(3)-3--(3)-(3)-3--(3)-(3)-|-3--(3)-(3)-3--(3)-(3)-3--(3)-(3)-3--(3)-(3)----||
|------------9---------------------9----------|------------9----------9---9---9--9---9---9-----||
|-9---9---9--9---9---9--9---9---9--9---9---9--|-9---9---9--9---9---9--9---9---9--9---9---9-----||
|---------------------------------------------|------------------------------------------------||
|---------------------------------------------|------------------------------------------------||


 Outro
                                                                          |---3---|
  S  S   S  S  S   S  S  S   S  S  S   S    S  S   S  S  S   S  S  S   S  S S     S S
|-----------------------------------------|-------------------------------------------|
|-----------------------------------------|-------------------------------------------|
|-----------------------------------------|-------------------------------------------|
|-7-------------------7-------------------|-8-------------------8------7--5h7p====5---|
|----6---5--0--5---6-----6---5--0--5---6--|----6---5--0--5---6-----6----------------6-|
|
| S  S   S  S  S   S  S  S   S  S  S   S    S  S   S  S  S   S  S  S   S  S    S    S
|-3-(3)-(3)-3-(3)-(3)-3-(3)-(3)-3-(3)-(3)-|-3-(3)-(3)-3-(3)-(3)-3-(3)-(3)-3---(3)-----|
|-----------9-------------------9---------|-----------9-------------------9---------9-|
|-9--9---9--9--9---9--9--9---9--9--9---9--|-9--9---9--9--9---9--9--9---9--9----9----9-|
|-----------------------------------------|-------------------------------------------|
|-----------------------------------------|-------------------------------------------|


                                                      |---3---|
  S  S   S  S  S   S  S  S   S  S  S   S    S  S   S  S S     S  S  S  S   S  S  S   S
|-----------------------------------------|------------------------------------------------|
|-----------------------------------------|------------------------------------------------|
|-----------------------------------------|-5------3--2h3p====2----------------------------|
|-7-------------------7-------------------|----3-----------------3--5--2------3--0---------|
|----6---5--0--5---6-----6---5--0--5---6--|--------------------------------0---------3-----|
|
| S  S   S  S  S   S  S  S   S  S  S   S    S  S   S  S    S     S  S  S   S  S  S   S
|-3-(3)-(3)-3-(3)-(3)-3-(3)-(3)-3-(3)-(3)-|-3-(3)-(3)-3---(3)---(3)-0-(0)-(0)-0-(0)-(0)----|
|-----------9-------------------9---------|-----------9------------------------------------|
|-9--9---9--9--9---9--9--9---9--9--9---9--|-9--9---9--9----9-----9--9--9---9--9--9---9-----|
|-----------------------------------------|------------------------------------------------|
|-----------------------------------------|------------------------------------------------|


                                                                                 |---3----|
  S  S   S   S   S   S  S  S   S   S   S   S    S  S   S   S   S   S  S  S   S   S  S     S  S
|---------------------------------------------|-------------------------------------------------|
|---------------------------------------------|-------------------------------------------------|
|---------------------------------------------|-------------------------------------------------|
|-7---------------------7---------------------|-8---------------------8------7---5h=7p====5-----|
|----6---5---0---5---6-----6---5---0---5---6--|----6---5---0---5---6-----6-------------------6--|
|
| S  S   S   S   S   S  S  S   S   S   S   S    S  S   S   S   S   S  S  S   S   S     S     S
|-5-(5)-(5)-(5)-(5)-(5)-3-(3)-(3)-(3)-(3)-(3)-|-5-(5)-(5)-(5)-(5)-(5)-3-(3)-(3)-(3)---(3)---(3)-|
|-9---------------------9---------------------|-9---------------------9-------------------------|
|-9--9---9---9---9---9--9--9---9---9---9---9--|-9--9---9---9---9---9--9--9---9---9-----9-----9--|
|---------------------------------------------|-------------------------------------------------|
|---------------------------------------------|-------------------------------------------------|


                                                                 2/4
  S  S   S   S   S   S  S  S   S   S   S   S    S H       S S S    Q  Q
|---------------------------------------------|-----------------|----------*|
|---------------------------------------------|-----------------|----------*|
|---------------------------------------------|-5---------------|----------*|
|-7---------------------7---------------------|-----------3-0---|--2-------*|
|----6---5---0---5---6-----6---5---0---5---6--|---------------3-|--0-------*|
|
| S  S   S   S   S   S  S  S   S   S   S   S    S S Q..   S S S    Q  Q
|-5-(5)-(5)-(5)-(5)-(5)-3-(3)-(3)-(3)-(3)-(3)-|-5---------------|--5-------*|
|-9---------------------9---------------------|-9---------9-9-9-|--9-------*|
|-9--9---9---9---9---9--9--9---9---9---9---9--|-9---------9-9-9-|--9-------*|
|---------------------------------------------|-----------------|-11-------*|
|---------------------------------------------|-----------------|----------*|



Duration Legend
---------------
W - whole; H - half; Q - quarter; E - 8th; S - 16th; T - 32nd; X - 64th; a - acciaccatura
+ - note tied to previous; . - note dotted; .. - note double dotted
Uncapitalized letters represent notes that are staccato (1/2 duration)
Irregular groupings are notated above the duration line
Duration letters will always appear directly above the note/fret number it represents the
duration for.  Duration letters with no fret number below them represent rests.  Multi-
bar rests are notated in the form Wxn, where n is the number of bars to rest for.  Low
melody durations appear below the staff

Tablature Legend
----------------
 h   - hammer-on
 p   - pull-off
 b   - bend
 pb  - pre-bend
 r   - bend release (if no number after the r, then release immediately)
 /\  - slide into or out of (from/to "nowhere")
 s   - legato slide
 S   - shift slide
 - natural harmonic
[n]  - artificial harmonic
n(n) - tapped harmonic
 ~   - vibrato
 tr  - trill
 T   - tap
 TP  - trem. picking
 PM  - palm muting
\n/  - tremolo bar dip; n = amount to dip
 \n  - tremolo bar down
 n/  - tremolo bar up
/n\  - tremolo bar inverted dip
 =   - hold bend; also acts as connecting device for hammers/pulls
 <> - volume swell (louder/softer)
 x   - on rhythm slash represents muted slash
 o   - on rhythm slash represents single note slash

Misc Legend
-----------
 |  - bar
||  - double bar
||o - repeat start
o|| - repeat end
*|  - double bar (ending)
 :  - bar (freetime)
 $  - Segno
 &  - Coda
Tempo markers -  = BPM(8/16=s8/s16), where s8 = swing 8ths, s16 = swing 16ths

Related for This Godless Endeavor tab
×
This Godless Endeavor