Song name
# A B C D E F G H I J K L M N O P Q R S T U V W X Y Z

Nevershoutnever - Hummingbird tab

First tab!!!!!!!!

Standard tuning

interchange these 2 parts within the whole song

|------------------------|
|---------------------8--|
|-----8-------10----8----|
|---8------10-----6------|
|-6------8---------------|
|------------------------|
(I______ like_____ you____)

|-----------------------------------------|
|-----------------------------------------|
|-------8-----------------10-----------13-|
|----8--- ------------10-----------13-----|
|-6-----------------8----------11---------|
|-----------------------------------------|
(Girl you don't got nothing to prove to me)
Tap to rate this tab
 
# A B C D E F G H I J K L M N O P Q R S T U V W X Y Z