Song name
# A B C D E F G H I J K L M N O P Q R S T U V W X Y Z

Nevershoutnever - Hummingbird tab

---------------------------------------------------------------------------------
			    Hummingbird - Nevershoutnever!
-------------------------------------------------------------------------------
Tabbed by:Evh4293


Tuning:Standard EADGBe

e|----2--------2---------0--------0---------3-------------------------------|
B|---------------3------------------0---------------------------------------|
G|----2-------2------------------0------------------------------------------|    4x
D|----------0------------------2--------------------------------------------|
A|-----------------------2--------------------------------------------------|
E|------------------------------------------3-------------------------------|

e|----0---------0----------0---------0--------------------------------------|
B|---------------0--------------------0-------------------------------------|
G|----2-------2------------2------2------------2----------------------------|
D|----------2-------------------2--------------2----------------------------|
A|--------------------------------------------------------------------------|
E|--------------------------------------------------------------------------|

e|----3------3---3----------------------------------------------------------|
B|---------3----------------------------------------------------------------|
G|-------2-----2------------------------------------------------------------| 8x
D|--------------------------------------------------------------------------|
A|--------------------------------------------------------------------------|
E|--------------------------------------------------------------------------|
Tap to rate this tab
# A B C D E F G H I J K L M N O P Q R S T U V W X Y Z