Song name
# A B C D E F G H I J K L M N O P Q R S T U V W X Y Z

Nevershoutnever - Trampoline tab

-------------------------------------------------------------------------------
     Trampoline - Never Shout Never
-------------------------------------------------------------------------------
*This is the studio version of the song*

Tuning: Standard

e|-------2--2-----2--2-----2--2-----2--------2--2-----2--2-----2--2----2-----|
B|-------3--3-----3--3-----3--3-----3--------3--3-----3--3-----3--3----3-----|
G|-------2--2--2--2--2-----2--2--2--2--------4--4-----4--4-----4--4----4-----|
D|-----0----------------0--------------------4--4--4--4--4-----4--4--4-4-----|
A|----------------------------------------2--2--2-----2--2--2--2--2----2-----|
E|---------------------------------------------------------------------------|

e|-------2--2-----2--2-----2--2-----2--------2--2-----2--2-------------------|
B|-------3--3-----3--3-----3--3-----3--------3--3-----3--3-------------------|
G|-------2--2--2--2--2-----2--2--2--2--------4--4-----4--4-------------------|
D|-----0----------------0--------------------4--4--4--4--4-------------------|
A|----------------------------------------2--2--2-----2--2--2-2--2s4-0-------|
E|---------------------------------------------------------------------------|

e|-------2--2-----2--2-----2--2-----2--------2--2-----2--2-----2--2----2-----|
B|-------3--3-----3--3-----3--3-----3--------3--3-----3--3-----3--3----3-----|
G|-------2--2--2--2--2-----2--2--2--2--------4--4-----4--4-----4--4----4-----|
D|-----0----------------0--------------------4--4--4--4--4-----4--4--4-4-----|
A|----------------------------------------2--2--2-----2--2--2--2--2----2-----|
E|---------------------------------------------------------------------------|

e|-------2--2-----2--2-----2--2-----2---0------------------------------------|
B|-------3--3-----3--3-----3--3-----3---1------------------------------------|
G|-------2--2--2--2--2-----2--2--2--2---2------------------------------------|
D|-----0----------------0---------------2------------------------------------|
A|--------------------------------------0------------------------------------|
E|---------------------------------------------------------------------------|

__________________________________________________________________________________________________
(chorus)

e|-----------3-3-----3----0-0----0-----2-2----2-----2-2----2-----------------|
B|-----------3-3-----3----2-2----2-----3-3----3-----3-3----3-----------------|
G|-----------0-0-----0----2-2----2-----4-4----4-----2-2--2-2-----------------|
D|-----------0-0-----0----2-2--2-2-----4-4--4-4--0---------------------------|
A|-----------2-2--2--2--0-0-0----0--2--2-2----2------------------------------|
E|--0--2--3--3-3-----3-------------------------------------------------------|

e|----3-3---3-----0-0---0----2-2----2----2-2---2-----------------------------|
B|----3-3---3-----2-2---2----3-3----3----3-3---3-----------------------------|
G|----0-0---0-----2-2---2----4-4----4----4-4---4-----------------------------|
D|----0-0---0-----2-2-2-2----4-4--4-4----4-4-4-4-----------------------------|
A|----2-2-2-2---0-0-0---0--2-2-2----2--2-2-2---2-----------------------------|
E|--3-3-3---3----------------------------------------------------------------|

e|----0-0----0-----0-0----0----2-2---2---------------------------------------|
B|----0-0----0-----2-2----2----3-3---3---------------------------------------|
G|----1-1----1-----2-2----2----2-2-2-2---------------------------------------|
D|----2-2----2-----2-2--2-2--0-----------------------------------------------|
A|----2-2--2-2--0--0-0----0--------------------------------------------------|
E|--0------------------------------------------------------------------------|

__________________________________________________________________________________________________

(solo)-  Bm  G  A  D                 played the same way as the rest of the song
              Bm  G  Dsus


e|-------------------------10-------------------------9-10---10s12-10-----------|
B|---10p8h10---10--8-7-----------------------10-12-13---------------------------|
G|------------------------------11-9----9-12------------------------------------|
D|------------------------------------------------------------------------------|
A|------------------------------------------------------------------------------|
E|------------------------------------------------------------------------------|

e|----14-12------------12----------------------------------------------------|
B|---x-----15----------------------------------------------------------------|
G|--x--------14--12-14-------------------------------------------------------|
D|---------------------------------------------------------------------------|
A|---------------------------------------------------------------------------|
E|---------------------------------------------------------------------------|
__________________________________________________________________________________________________

there is no guitar during this part, but you could play

e|-------2--2-----2--2-----2--2-----2--------2--2-----2--2-----2--2----2-----|
B|-------3--3-----3--3-----3--3-----3--------3--3-----3--3-----3--3----3-----|
G|-------2--2--2--2--2-----2--2--2--2--------4--4-----4--4-----4--4----4-----|
D|-----0----------------0--------------------4--4--4--4--4-----4--4--4-4-----|
A|----------------------------------------2--2--2-----2--2--2--2--2----2-----|
E|---------------------------------------------------------------------------|

e|-------2--2-----2--2-----2--2-----2---0------------------------------------|
B|-------3--3-----3--3-----3--3-----3---1------------------------------------|
G|-------2--2--2--2--2-----2--2--2--2---2------------------------------------|
D|-----0----------------0---------------2------------------------------------|
A|--------------------------------------0------------------------------------|
E|---------------------------------------------------------------------------|
__________________________________________________________________________________________________

(repeat chorus)
__________________________________________________________________________________________________

e|-----2-2----2-----3-3----3-3----3-3---3-3--------------0---0---0-----------|
B|-----3-3----3-----3-3----3-3----3-3---3-3--------------2---3---2-----------|
G|-----2-2--2-2-----4-4----4-4----3-3---3-3--------------2---2---2-----------|
D|---0--------------5-5----5-5----5-5---5-5--------------2---0---2-----------|
A|------------------5-5--5-5-5----5-5-5-5-5--------------0-------0-----------|
E|---------------3--3-3----3-3--3-3-3---3-3----------------------------------|

e|----0-0----0-----0-0----0----2-2---2----2-2----2---------------------------|
B|----0-0----0-----2-2----2----3-3---3----3-3----3---------------------------|
G|----1-1----1-----2-2----2----2-2-2-2----2-2--2-2---------------------------|
D|----2-2----2-----2-2--2-2--0----------0------------------------------------|
A|----2-2--2-2--0--0-0----0--------------------------------------------------|
E|--0------------------------------------------------------------------------|

e|----0-0----0-----0-0----0----2-2---2----2-2----2---------------------------|
B|----0-0----0-----2-2----2----3-3---3----3-3----3---------------------------|
G|----1-1----1-----2-2----2----2-2-2-2----2-2--2-2---------------------------|
D|----2-2----2-----2-2--2-2--0----------0------------------------------------|
A|----2-2--2-2--0--0-0----0--------------------------------------------------|
E|--0------------------------------------------------------------------------|

e|----0-------0-------2----------------0---2---------------------------------|
B|----0-------2-------3----------------2---3---------------------------------|
G|----1-------2-------2----------------2---2---------------------------------|
D|----2-------2-------0----------------2---0---------------------------------|
A|----2-------0------------------------0-------------------------------------|
E|----0----------------------------------------------------------------------|
Tap to rate this tab
 
# A B C D E F G H I J K L M N O P Q R S T U V W X Y Z