Guitaretab - guitar tabs
Song name
# A B C D E F G H I J K L M N O P Q R S T U V W X Y Z

Neverstore - Nanana tab

Neverstore
Nanana
Tabbed By: Spraxx888


Intro
E|-----------------------------------|
B|-----------------------------------|
G|-7-7-7-7-7-7-7-777-7-7-7-7-7-7-777-|
D|-7-7-7-7-7-7-7-777-7-7-7-7-7-7-777-|
A|-5-5-5-5-5-5-5-555-5-5-5-5-5-5-555-|
E|-----------------------------------|

Verse 
E|-----------------------------------------------------------------|
B|-----------------------------------------------------------------|
G|-7-7-7-7-7-7-7-7-4-4-4-4-4-4-4-4---------------------------------|
D|-7-7-7-7-7-7-7-7-4-4-4-4-4-4-4-4-5-5-5-5-5-5-5-5-7-7-7-7-7-7-7-7-|
A|-5-5-5-5-5-5-5-5-2-2-2-2-2-2-2-2-5-5-5-5-5-5-5-5-7-7-7-7-7-7-7-7-|
E|---------------------------------3-3-3-3-3-3-3-3-5-5-5-5-5-5-5-5-|
[ Tab from: http://www.guitaretab.com/n/neverstore/154501.html ]
Pre-Chorus
E|-----------------------------------------------------------------|
B|-----------------------------------------------------------------|
G|-------------------------4-4-4-4---------------------------------|
D|-5-5-5-5-5-5-5-5-7-7-7-7-4-4-4-4-5-5-5-5-5-5-5-5-7-7-7-7-7-7-7-7-|
A|-5-5-5-5-5-5-5-5-7-7-7-7-2-2-2-2-5-5-5-5-5-5-5-5-7-7-7-7-7-7-7-7-|
E|-3-3-3-3-3-3-3-3-5-5-5-5---------3-3-3-3-3-3-3-3-5-5-5-5-5-5-5-5-|

Chorus
E|-----------------------------------------------------------------|
B|-----------------------------------------------------------------|
G|-7-7-7-7-7-7-7-7-4-4-4-4---------7-7-7-7-7-7-7-7-4-4-4-4---------|
D|-7-7-7-7-7-7-7-7-4-4-4-4-5-5-5-5-7-7-7-7-7-7-7-7-4-4-4-4-5-5-5-5-|
A|-5-5-5-5-5-5-5-5-2-2-2-2-5-5-5-5-5-5-5-5-5-5-5-5-2-2-2-2-5-5-5-5-|
E|-------------------------3-3-3-3-------------------------3-3-3-3-|



I know there is another part. Figure it out yourself ;)
Also a wierd part played during pre-chorus.

Questions, Hate-mails and Other shit: nicke8@msn.com
 
Related for Nanana tab
Advertisement will be closed in 10 seconds