Song name
# A B C D E F G H I J K L M N O P Q R S T U V W X Y Z

Nevertheless - Lover tab

This is the riff before v2 and during the solo. This is how i play it and it sounds great.

e|--------------------------------------------------------------|
b|-------10---7h8p7--8p7---5h7p5--------------------------------|
g|---7\9----7------7-----7--------------------------------------|
d|------------------7-------------------------------------------|
a|--------------------------------------------------------------|
E|--------------------------------------------------------------|

e|----------------------------------|
b|-------------(7)------------------|
g|----777p6----(7)------------------|
d|----------7--(7)------------------|
a|--------------^-------------------|
E|-----------Harmonics--------------|
Tap to rate this tab
# A B C D E F G H I J K L M N O P Q R S T U V W X Y Z