Song name
# A B C D E F G H I J K L M N O P Q R S T U V W X Y Z

New Found Glory - Everything I Do I Do It For You tab

TITLE:       everything i do i do it for you
ARTIST:      new found glory
ALBUM:       from the screen to your stereo
TABBED BY:   silentrocker21
E-MAIL:      lorenz10_15@yahoo.com



hope you like my tab... nice song, juzt do the strumming pattern the way the band did it...
add me in friendster/myspace: lorenz10_15@yahoo.com
thankz...
(juzt msg me if u want me to tab a new rock song that you like...\m/\m/)



GUITAR TUNING : STANDARD


InTrO:
e|-----------------------------------4-4-------------------------------|
B|-6---6---6---7-9-7-6-4---4---4---4-----4---------------7-7-----------|
G|---6---6---6-----------5---5---5---------6---6---6---6-----6-4/6-4-4-|
D|-------------------------------------------8---8---8-------------6-6-|
A|---------------------------------------------------------------------|
E|---------------------------------------------------------------------|


vErSe1:
e|--------------------------------------------------------------|
B|--------------------------------------------------------------|
G|--------------------------------------------------------------|
D|---6----5----3----6----6----5----4----6----6----8-------------|
A|---4----3----1----6----4----3----4----4----6----6-------------|
E|------------------4--------------2---------4------------------|



e|--------------------------------------------------------------|
B|--------------------------------------------------------------|
G|--------------------------------------------------------------|
D|---8-8----6---6-6----8------6----5----6-----------------------|
A|---6-6----4---4-4----6------4----3----4-----------------------|
E|--------------------------------------------------------------|
   (PM PM)    (PM PM)
  ^                     ^
  :------repeat 3x------:


VeRsE2:
e|-------------------------------------------------------------|
B|-------------------------------------------------------------|
G|-------------------------------------------------------------|
D|---6----5----3------------6-6---6----5----4----6----6----8---|
A|---4----3----1------4-4---------4----3----4----4----6----6---|
E|------------------4-----4-----------------2---------4--------|
                   ^           ^
                   :-repeat 2x-:


e|--------------------------------------------------------------|
B|--------------------------------------------------------------|
G|--------------------------------------------------------------|
D|---8-8----6---6-6----8------6----5----6-----------------------|
A|---6-6----4---4-4----6------4----3----4-----------------------|
E|--------------------------------------------------------------|
   (PM PM)    (PM PM)
  ^                     ^
  :------repeat 3x------:



bRiDgE:
e|--------------------------------------------------------|
B|--------------------------------------------------------|
G|--------------------------------------------------------|
D|---4------2------4------4------6------5------8------6---|
A|---2------2------2------4------4------3------6------6---|
E|----------0-------------2---------------------------4---|



AdLiB:
guitar1:
e|-------------------------------------------------------|
B|-------------------------------------------------------|
G|---8-10---------------------8-10-----------------------|
D|--------8-11---------------------8-11------------------|
A|----------11-----------------------11------------------|
E|----------9------------------------9-------------------|

guitar2:
e|-------------------------------------------------------
B|-------------------------------------------------------
G|-------------10---10-8---------------------------------
D|-----------------------11-8-11---11/13-13----8-11-11---
A|-------------------------------------------------------
E|-------------------------------------------------------
                    ^          ^
                    :----PM----:



continuation (guitar1):
e|------------------------------------------------------------------|
B|------------------------------------------------------------------|
G|---8-10---------------------8-10----------------------------------|
D|--------8-11---------------------8-11-----------------------------|
A|----------11-----------------------11-----------------------------|
E|----------9------------------------9------------------------------|

             (guitar2):
------------9-9-----------9-----------------------------------------|
--------9-9-----9^11v9^11---11v9-9---11-9----9----------------------|
-----10-----------------------------------10---8h10--8-6h8-6h8-6~---|
--------------------------------------------------------------------|
--------------------------------------------------------------------|
--------------------------------------------------------------------|



cHoRuS:
guitar1:
e|--------------------------------------------------------|
B|--------------------------------------------------------|
G|--------------------------------------------------------|
D|---8------6------8------6------6------5------4------7---|
A|---6------6------6------6------4------3------4------7---|
E|----------4-------------4--------------------2------5---|



guitar1:
e|---------------------------------------------------------------|
B|---------------------------------------------------------------|
G|---------------------------------------------------------------|
D|---6-------------------5-------------------4---------------6---|
A|---4-------------------3-------------------4---------------4---|
E|-------------------------------------------2-------------------|

guitar2:
e|---------------------------------------------------------------|
B|---6---6---6---7-9-7-6-4---4---4---4-6-4---------------6-------|
G|-----6---6---6-----------5---5---5---------6---6---8-------6---|
D|-----------------------------------------8---8---8---8---8-----|
A|---------------------------------------------------------------|
E|---------------------------------------------------------------|





Key:
T   - Tap (Strings)
PM  - Palm Muting
/   - Slide Up
\   - Slide Down
h   - Hammer-on
p   - Pull-off
~   - Let the note ringing
s   - Strum softly
c   - Continue and Continuation
^   - Bend
*   - Harmonics



<---------------lyrics--------------->
verse:
look into my eyes and you will see
what you mean to me
search your heart, search your soul
and when you find me there, you'll search no more

chorus:
don't tell me it's not worth trying for
you can't tell me, it's not worth dying for
you know it's true, everything i do, i do it for you

verse:
look into your heart, and you will find
there's nothing there to hide
take me as i am, take my life
i will give it all, i would sacrifice

chorus:
dont tell me it's not worth waiting for
can't help me, it's nothing being i want more
you know it's true, everything i do, i do it for you

bridge:
there's no love, like your love
and no other, could get more love
there's nowhere unless you're there
all the time, all the way yeah...

chorus:
can't tell me, it's not worth trying for
i can't help me, there's nothing i want more
yeah i would fight for you, i'd die for you
walk the war for you, yeah i'd die for you
you know it's true, everything i do, oh...
i do it for you...
Tap to rate this tab
# A B C D E F G H I J K L M N O P Q R S T U V W X Y Z