Song name
# A B C D E F G H I J K L M N O P Q R S T U V W X Y Z

New Found Glory - Time After Time tab

Help us improve GuitareTab! Take a short survey!
intro
e---------------------------------------------------------------|
B---------------------------------------------------------------|
G---------------------------------------------------------------|
D--9999--77777--55--5555--777777--------------------------------|
A--7777--55555--33--3333--555555--------------------------------|
E---------------------------------------------------------------|
cont
e-------------------------------------------------------------|
B-------------------------------------------------------------|
G-------------------------------------------------------------|
D-9999--77777--55--5555--7------------------------------------|
A-7777--55555--33--3333--5------------------------------------|
E-------------------------------------------------------------|

intro2/verse
e----------------------------------------------------------------------|
B----------------------------------------------------------------------|
G----------------------------------------------------------------------|
D----------------------------------------------------------------------|
A-777--9999--555--7777---777--9999--555555--x2-------------------------|
E-555--7777--333--5555---555--7777--333333-----------------------------|

ref.
e----------------------------------------------------------------|
B----------------------------------------------------------------|
G----------------------------------------------------------------|
D-5555--7777-----------------------------------------------------|
A-5555--7777--3x-------------------------------------------------|
E-3333--5555-----------------------------------------------------|

chorus
almost the same as intro
e----------------------------------------------------------------|
B----------------------------------------------------------------|
G----------------------------------------------------------------|
D-9999--7777--55--5555--7777777--x3------------------------------|
A-7777--5555--33--3333--5555555----------------------------------|
E----------------------------------------------------------------|

e------------------------------------------------------|
B------------------------------------------------------|
G------------------------------------------------------|
D--99--77--5555--5--777--5-----------------------------|
A--77--55--3333--3--555--3-----------------------------|
E------------------------------------------------------|


you can also play verse w/ this
e-------------------------------------------|
B-------------------------------------------|
G-------------------------------------------|
D-77777777----------------------------------|
A-55555555---77777777-----------------------|
E------------55555555-----------------------|


well thats all...it's easy trust me..figure out the strumming
......chaoz...........
gud luck!!!!
Related for Time After Time tab