Guitaretab - guitar tabs
Song name
# A B C D E F G H I J K L M N O P Q R S T U V W X Y Z

New Found Glory - Sticks And Stones tab

Hi! This is andrew jones (snbritishfreak@hotmail.com) i saw that there were no full album tabs
for sticks and stones! So i have been working hard for a while now to get out a tab for you all.
please email and comment cos i have to kno how i did!

NOTE: for the most part i only wrote "DISTORTION" once and so you just play distortion until the
word "CLEAN" comes up so if u see a riff w/o DISTORTION on it and the last riff had distortion so
does that one. 

here goes:

album tracks:
1.  Understatement
2.  My Friends Over You
3.  Sonny
4.  Something I Call Personality
5.  Head on Collision
6.  Its Been a Summer
7.  Forget My Name
8.  Never Give Up
9.  Great Houdini
10. Singled Out
11. Belated
12. Story So Far
13. Anniversary

KEY:
>=Let ring 
X=palm mute (below tab)
x=muted string(in tab)
/=slide


----------------------------------------------------------------------------
                             UNDERSTATEMENT
----------------------------------------------------------------------------
                              DISTORTION

both guitars play the whole song together

intro                                               
e|------------------------------------------------------------------]
B|------------------------------------------------------------------]
G|------------------------------------------------------------------]
D|-2x2--xxxx--2x2--xxxx--2x2--xxxx--2x2--xxxx-----------------------]
A|-2x2--xxxx--2x2--xxxx--2x2--xxxx--2x2--xxxx-----------------------]
E|-0x0--xxxx--0x0--xxxx--0x0--xxxx--0x0--xxxx-----------------------]

e|------------------------------------------------------------------]
B|------------------------------------------------------------------]
G|------------------------------------------------------------------]
D|-2xxxxxxxxxxxxxx--------------------------------------------------]
A|-2xxxxxxxxxxxxxx--------------------------------------------------]
E|-0xxxxxxxxxxxxxx--------------------------------------------------]

verse
                                                    
e|------------------------------------------------------------------]
B|------------------------------------------------------------------]
G|------------------------------------------------------------------]
D|-2xxxxxxxxxxxxxxx--4-4--44--7-7--77-------------------------------]
A|-2xxxxxxxxxxxxxxx--4-4--44--7-7--77-------------------------------]
E|-0xxxxxxxxxxxxxxx--2-2--22--5-5--55-------------------------------]

e|------------------------------------------------------------------]
B|------------------------------------------------------------------]
G|------------------------------------------------------------------]
D|-2xxxxxxxxxxxxxxx--4-4--44--7-7--77-------------------------------]
A|-2xxxxxxxxxxxxxxx--4-4--44--7-7--77-------------------------------]
E|-0xxxxxxxxxxxxxxx--2-2--22--5-5--55-------------------------------]

e|------------------------------------------------------------------]
B|------------------------------------------------------------------]
G|------------------------------------------------------------------]
D|-2xxxxxxxxxxxxxxx--4-4--44--7-7--77-------------------------------]
A|-2xxxxxxxxxxxxxxx--4-4--44--7-7--77-------------------------------]
E|-0xxxxxxxxxxxxxxx--2-2--22--5-5--55-------------------------------]

e|------------------------------------------------------------------]
B|------------------------------------------------------------------]
G|------------------------------------------------------------------]
D|-2xxxxxxxxxxxxxxx--4-4--44--7-7--77-------------------------------]
A|-2xxxxxxxxxxxxxxx--4-4--44--7-7--77-------------------------------]
E|-0xxxxxxxxxxxxxxx--2-2--22--5-5--55-------------------------------]

pre-chorus                                   
e|------------------------------------------------------------------]
B|------------------------------------------------------------------]
G|------------------------------------------------------------------]
D|-11-11--1111--9-9--99--7-7--77--9-9--99---------------------------]
A|-11-11--1111--9-9--99--7-7--77--9-9--99---------------------------]
E|--9--9---9-9--7-7--77--5-5--55--7-7--77---------------------------]

e|------------------------------------------------------------------]
B|------------------------------------------------------------------]
G|------------------------------------------------------------------]
D|-11-11--1111--9-9--99--7-7--77--9xxxx-9---------------------------]
A|-11-11--1111--9-9--99--7-7--77--9xxxx-9---------------------------]
E|--9--9---9-9--7-7--77--5-5--55--7xxxx-7---------------------------]

e|------------------------------------------------------------------]
B|------------------------------------------------------------------]
G|------------------------------------------------------------------]
D|-11-11--1111--9-9--99--7-7--77--9-9--99---------------------------]
A|-11-11--1111--9-9--99--7-7--77--9-9--99---------------------------]
E|--9--9---9-9--7-7--77--5-5--55--7-7--77---------------------------]

e|------------------------------------------------------------------]
B|------------------------------------------------------------------]
G|------------------------------------------------------------------]
D|-11-11--1111--9-9--99--7-7----------------------------------------]
A|-11-11--1111--9-9--99--7-7----------------------------------------]
E|--9--9---9-9--7-7--77--5-5----------------------------------------]

chorus   
e|------------------------------------------------------------------]
B|------------------------------------------------------------------]
G|-------------2--2-04444--------------2--2-04444-------------------]
D|-2--2-04444--2--2-04444--2--2-04444--2--2-04444-------------------]
A|-2--2-04444--0--0-02222--2--2-04444--0--0-02222-------------------]
E|-0--0-02222--------------0--0-02222-------------------------------]

e|------------------------------------------------------------------]
B|------------------------------------------------------------------]
G|-------------2--2-04444-------------------------------------------]
D|-2--2-04444--2--2-04444-------------------------------------------]
A|-2--2-04444--0--0-02222-------------------------------------------]
E|-0--0-02222-------------------------------------------------------]

e|------------------------------------------------------------------]
B|------------------------------------------------------------------]
G|------------------------------------------------------------------]
D|-11>-------7-7x---9-9--------------------------------------------]
A|-11>-------7-7x---9-9--------------------------------------------]
E|--9>-------5-5x---7-7--------------------------------------------]

pre-verse      distorted
e|------------------------------------------------------------------]
B|------------------------------------------------------------------]
G|-----------------------------------------------------------------]
D|-2xxxxxxxxxxxxxx--------------------------------------------------]
A|-2xxxxxxxxxxxxxx--------------------------------------------------]
E|-0xxxxxxxxxxxxxx--------------------------------------------------]

verse 2
         
e|------------------------------------------------------------------]
B|------------------------------------------------------------------]
G|------------------------------------------------------------------]
D|-2xxxxxxxxxxxxxxx--4-4--44--7-7--77-------------------------------]
A|-2xxxxxxxxxxxxxxx--4-4--44--7-7--77-------------------------------]
E|-0xxxxxxxxxxxxxxx--2-2--22--5-5--55-------------------------------]

e|------------------------------------------------------------------]
B|------------------------------------------------------------------]
G|------------------------------------------------------------------]
D|-2xxxxxxxxxxxxxxx--4-4--44--7-7--77-------------------------------]
A|-2xxxxxxxxxxxxxxx--4-4--44--7-7--77-------------------------------]
E|-0xxxxxxxxxxxxxxx--2-2--22--5-5--55-------------------------------]

pre-chorus   
e|------------------------------------------------------------------]
B|------------------------------------------------------------------]
G|------------------------------------------------------------------]
D|-11-11--1111--9-9--99--7-7--77--9-9--99---------------------------]
A|-11-11--1111--9-9--99--7-7--77--9-9--99---------------------------]
E|--9--9---9-9--7-7--77--5-5--55--7-7--77---------------------------]

e|------------------------------------------------------------------]
B|------------------------------------------------------------------]
G|------------------------------------------------------------------]
D|-11-11--1111--9-9--99--7-7--77--9xxxx-9---------------------------]
A|-11-11--1111--9-9--99--7-7--77--9xxxx-9---------------------------]
E|--9--9---9-9--7-7--77--5-5--55--7xxxx-7---------------------------]

e|------------------------------------------------------------------]
B|------------------------------------------------------------------]
G|------------------------------------------------------------------]
D|-11-11--1111--9-9--99--7-7--77--9-9--99---------------------------]
A|-11-11--1111--9-9--99--7-7--77--9-9--99---------------------------]
E|--9--9---9-9--7-7--77--5-5--55--7-7--77---------------------------]

e|------------------------------------------------------------------]
B|------------------------------------------------------------------]
G|------------------------------------------------------------------]
D|-11-11--1111--9-9--99--7-7----------------------------------------]
A|-11-11--1111--9-9--99--7-7----------------------------------------]
E|--9--9---9-9--7-7--77--5-5----------------------------------------]

chorus   
e|------------------------------------------------------------------]
B|------------------------------------------------------------------]
G|-------------2--2-04444--------------2--2-04444-------------------]
D|-2--2-04444--2--2-04444--2--2-04444--2--2-04444-------------------]
A|-2--2-04444--0--0-02222--2--2-04444--0--0-02222-------------------]
E|-0--0-02222--------------0--0-02222-------------------------------]

e|------------------------------------------------------------------]
B|------------------------------------------------------------------]
G|-------------2--2-04444-------------------------------------------]
D|-2--2-04444--2--2-04444-------------------------------------------]
A|-2--2-04444--0--0-02222-------------------------------------------]
E|-0--0-02222-------------------------------------------------------]

e|------------------------------------------------------------------]
B|------------------------------------------------------------------]
G|------------------------------------------------------------------]
D|-11>-------7-7x---9-9--------------------------------------------]
A|-11>-------7-7x---9-9--------------------------------------------]
E|--9>-------5-5x---7-7--------------------------------------------]

bridge part 1
      
e|------------------------------------------------------------------]
B|------------------------------------------------------------------]
G|------------------------------------------------------------------]
D|-2222--2--2--2--4444--4--4--4--7777--7--7--7--7777-7-9--9---------]
A|-2222--2--2--2--4444--4--4--4--7777--7--7--7--7777-7-9--9---------]
E|-0000--0--0--0--2222--2--2--2--5555--5--5--5--5555-5-7_-7_--------]
   xxxx  x        xxxx  x        xxxx  x        xxxx x
e|------------------------------------------------------------------]
B|------------------------------------------------------------------]
G|------------------------------------------------------------------]
D|-2222--2--2--2--4444--4--4--4--7777--7--7--7--7777-7-9--9---------]
A|-2222--2--2--2--4444--4--4--4--7777--7--7--7--7777-7-9--9---------]
E|-0000--0--0--0--2222--2--2--2--5555--5--5--5--5555-5-7--7---------]
   xxxx  x        xxxx  x        xxxx  x        xxxx x
e|------------------------------------------------------------------]
B|------------------------------------------------------------------]
G|------------------------------------------------------------------]
D|-2222--2--2--2--4444--4--4--4--7777--7--7--7--7777-7-9--9---------]
A|-2222--2--2--2--4444--4--4--4--7777--7--7--7--7777-7-9--9---------]
E|-0000--0--0--0--2222--2--2--2--5555--5--5--5--5555-5-7_-7_--------]
   xxxx  x        xxxx  x        xxxx  x        xxxx x

bridge part 2
                                                               clean

e|------------------------------------------------------------------]
B|------------------------------------------------------------------]
G|-------------2--2-04444--------------2--2-04444-------------------]
D|-2--2-04444--2--2-04444--2--2-04444--2--2-04444-------------------]
A|-2--2-04444--0--0-02222--2--2-04444--0--0-02222-------------------]
E|-0--0-02222--------------0--0-02222-------------------------------]

e|------------------------------------------------------------------]
B|------------------------------------------------------------------]
G|-------------2--2-04444-------------------------------------------]
D|-2--2-04444--2--2-04444-------------------------------------------]
A|-2--2-04444--0--0-02222-------------------------------------------]
E|-0--0-02222-------------------------------------------------------]

bridge part 3
                                                  back to distortion
e|------------------------------------------------------------------]
B|------------------------------------------------------------------]
G|------------------------------------------------------------------]
D|-11>-------7-7x---9--9--------------------------------------------]
A|-11>-------7-7x---9--9--------------------------------------------]
E|--9>-------5-5x---7--7--------------------------------------------]

bridge part 4

 
e|------------------------------------------------------------------]
B|------------------------------------------------------------------]
G|-------------2--2-04444--------------2--2-04444-------------------]
D|-2--2-04444--2--2-04444--2--2-04444--2--2-04444-------------------]
A|-2--2-04444--0--0-02222--2--2-04444--0--0-02222-------------------]
E|-0--0-02222--------------0--0-02222-------------------------------]

e|------------------------------------------------------------------]
B|------------------------------------------------------------------]
G|-------------2--2-04444-------------------------------------------]
D|-2--2-04444--2--2-04444-------------------------------------------]
A|-2--2-04444--0--0-02222-------------------------------------------]
E|-0--0-02222-------------------------------------------------------]

chorus   
e|------------------------------------------------------------------]
B|------------------------------------------------------------------]
G|-------------2--2-04444--------------2--2-04444-------------------]
D|-2--2-04444--2--2-04444--2--2-04444--2--2-04444-------------------]
A|-2--2-04444--0--0-02222--2--2-04444--0--0-02222-------------------]
E|-0--0-02222--------------0--0-02222-------------------------------]

e|------------------------------------------------------------------]
B|------------------------------------------------------------------]
G|-------------2--2-04444-------------------------------------------]
D|-2--2-04444--2--2-04444-------------------------------------------]
A|-2--2-04444--0--0-02222-------------------------------------------]
E|-0--0-02222-------------------------------------------------------]

e|------------------------------------------------------------------|
B|------------------------------------------------------------------|
G|------------------------------------------------------------------|
D|-11>-------7-7x---9-9---------------------------------------------|
A|-11>-------7-7x---9-9---------------------------------------------|
E|--9>-------5-5x---7-7---------------------------------------------|

outro
e|---------------|
B|---------------|
G|---------------|
D|-2222--2--2~---|
A|-2222--2--2~---|
E|-0000--0--0~---|
   xxxx  x      

----------------------------------------------------------------------------
                           MY FRIENDS OVER YOU
----------------------------------------------------------------------------

intro 

lead
|-------------------------------|-------------------------------|
|---5-5-7-5---5---5-7-5---------|---5-5-7-5---5---5-7-5---------|
|----7-----7-7-7-7-----7-7-7----|----7-----7-7-7-7-----7-7-7----|
|-------------------------------|-------------------------------|
|-------------------------------|-------------------------------|
|-------------------------------|-------------------------------|

rhythem
|-------------------------------|-------------------------------|
|-------------------------------|-------------------------------|
|---7-7-7-----7--7--7-----------|-------------------------------|
|---7-7-7-----7--7--7-----------|---5-5-5-----5--5--5-----------|
|---5-5-5-----5--5--5-----------|---5-5-5-----5--5--5-----------|
|-------------------------------|---3-3-3-----3--3--3-----------|
              X  X                            X  X

lead
|-------------------------------|-------------------------------|
|---5-5-7-5---5---5-7-5---------|---5---5-7-5----5-5------------|
|----7-----7-7-7-7-----7-7-7----|-----7------7-7--7-------------|
|-------------------------------|-------------------------------|
|-------------------------------|-------------------------------|
|-------------------------------|-------------------------------|

rhythem
|-------------------------------|-------------------------------|
|-------------------------------|-------------------------------|
|---7-7-7-----7--7--7-----------|-------------------------------|
|---7-7-7-----7--7--7-----------|---5-5-5-----5--5--5-----------|
|---5-5-5-----5--5--5-----------|---5-5-5-----5--5--5-----------|
|-------------------------------|---3-3-3-----3--3--3-----------|
              X  X                            X  X
verse 1

lead
|-------------------------------|-------------------------------|
|-------------------------------|-------------------------------|
|---7-7-7-----7--7--7-----------|-------------------------------|
|---7-7-7-----7--7--7-----------|---5-5-5-----5--5--5-----------|
|---5-5-5-----5--5--5-----------|---5-5-5-----5--5--5-----------|
|-------------------------------|---3-3-3-----3--3--3-----------|
              X  X                            X  X
rhythem
|-------------------------------|-------------------------------|
|-------------------------------|-------------------------------|
|---7-7-7-----7--7--7-----------|-------------------------------|
|---7-7-7-----7--7--7-----------|---5-5-5-----5--5--5-----------|
|---5-5-5-----5--5--5-----------|---5-5-5-----5--5--5-----------|
|-------------------------------|---3-3-3-----3--3--3-----------|
              X  X                            X  X 


lead
|-------------------------------|-------------------------------|
|-------------------------------|-------------------------------|
|---7-7-7-----7--7--7-----------|--9--9--9-9--------------------|
|---7-7-7-----7--7--7-----------|--9--9--9-9---5--5--5-5-5------|
|---5-5-5-----5--5--5-----------|--7--7--7-7---5--5--5-5-5------|
|-------------------------------|--------------3--3--3-3-3------|
              X  X                                                 
rhythem
|-------------------------------|-------------------------------|
|-------------------------------|-------------------------------|
|---7-7-7-----7--7--7-----------|-------------------------------|
|---7-7-7-----7--7--7-----------|--2--2--2-2---5--5--5-5-5------|
|---5-5-5-----5--5--5-----------|--2--2--2-2---5--5--5-5-5------|
|-------------------------------|--0--0--0-0---3--3--3-3-3------|
              X  X


lead
|-------------------------------|-------------------------------|
|-------------------------------|-------------------------------|
|---7-7-7-----7--7--7-----------|-------------------------------|
|---7-7-7-----7--7--7-----------|---5-5-5-----5--5--5-----------|
|---5-5-5-----5--5--5-----------|---5-5-5-----5--5--5-----------|
|-------------------------------|---3-3-3-----3--3--3-----------|
              X  X                            X  X
rhythem
|-------------------------------|-------------------------------|
|-------------------------------|-------------------------------|
|---7-7-7-----7--7--7-----------|-------------------------------|
|---7-7-7-----7--7--7-----------|---5-5-5-----5--5--5-----------|
|---5-5-5-----5--5--5-----------|---5-5-5-----5--5--5-----------|
|-------------------------------|---3-3-3-----3--3--3-----------|
              X  X                            X  X


lead
|-------------------------------|-------------------------------|
|---5-5-7-5---5---5-7-5---------|-------------------------------|
|----7-----7-7-7-7-----7-7-7----|--9--9--9-9--------------------|
|-------------------------------|--9--9--9-9---5--5--5-5-5------|
|-------------------------------|--7--7--7-7---5--5--5-5-5------|
|-------------------------------|--------------3--3--3-3-3------|

rhythem
|-------------------------------|-------------------------------|
|-------------------------------|-------------------------------|
|---7-7-7-----7--7--7-----------|-------------------------------|
|---7-7-7-----7--7--7-----------|--2--2--2-2---5--5--5-5-5------|
|---5-5-5-----5--5--5-----------|--2--2--2-2---5--5--5-5-5------|
|-------------------------------|--0--0--0-0---3--3--3-3-3------|
              X  X
 

lead
|-------------------------------|-------------------------------|
|-------------------------------|-------------------------------|
|--9--9--9-9--------------------|--9--9--9-9--------------------|
|--9--9--9-9---5--5--5-5-5------|--9--9--9-9---5--5--5-5-5------|
|--7--7--7-7---5--5--5-5-5------|--7--7--7-7---5--5--5-5-5------|
|--------------3--3--3-3-3------|--------------3--3--3-3-3------|
                                                                    
rhythem
|-------------------------------|-------------------------------|
|-------------------------------|-------------------------------|
|-------------------------------|-------------------------------|
|--2--2--2-2---5--5--5-5-5------|--2--2--2-2---5--5--5-5-5------|
|--2--2--2-2---5--5--5-5-5------|--2--2--2-2---5--5--5-5-5------|
|--0--0--0-0---3--3--3-3-3------|--0--0--0-0---3--3--3-3-3------|




lead
|-------------------------------|-------------------------------|
|-------------------------------|-------------------------------|
|-------------------------------|-------------------------------|
|--7---7---7---7---7---7--------|--7---7---7--------------------|
|--7---7---7---7---7---7--------|--7---7---7--------------------|
|--5---5---5---5---5---5--------|--5---5---5--------------------|
                                                                    
rhythem
|-------------------------------|-------------------------------|
|-------------------------------|-------------------------------|
|-------------------------------|-------------------------------|
|--7---7---7---7---7---7--------|--7---7---7--------------------|
|--7---7---7---7---7---7--------|--7---7---7--------------------|
|--5---5---5---5---5---5--------|--5---5---5--------------------|

chorus

lead
|-------------------------------|-------------------------------|
|-------------------------------|-------------------------------|
|-7-7-7-7-7-7-7-7-7-7-7-7-7-7-7-|-------------------------------|
|-7-7-7-7-7-7-7-7-7-7-7-7-7-7-7-|-5-5-5-5-5-5-5-5-5-5-5-5-5-5-5-|
|-5-5-5-5-5-5-5-5-5-5-5-5-5-5-5-|-5-5-5-5-5-5-5-5-5-5-5-5-5-5-5-|
|-------------------------------|-3-3-3-3-3-3-3-3-3-3-3-3-3-3-3-|
                         
rhythem
|-------------------------------|-------------------------------|
|-------------------------------|-------------------------------|
|-7-7-7-7-7-7-7-7-7-7-7-7-7-7-7-|-------------------------------|
|-7-7-7-7-7-7-7-7-7-7-7-7-7-7-7-|-5-5-5-5-5-5-5-5-5-5-5-5-5-5-5-|
|-5-5-5-5-5-5-5-5-5-5-5-5-5-5-5-|-5-5-5-5-5-5-5-5-5-5-5-5-5-5-5-|
|-------------------------------|-3-3-3-3-3-3-3-3-3-3-3-3-3-3-3-|




lead
|-------------------------------|-------------------------------|
|-------------------------------|-------------------------------|
|-7-7-7-7-7-7-7-7-7-7-7-7-7-7-7-|-------------------------------|
|-7-7-7-7-7-7-7-7-7-7-7-7-7-7-7-|-5-5-5-5-5-5-5-5---------------|
|-5-5-5-5-5-5-5-5-5-5-5-5-5-5-5-|-5-5-5-5-5-5-5-5--PICK SLIDE---|
|-------------------------------|-3-3-3-3-3-3-3-3---------------|
                         
rhythem
|-------------------------------|-------------------------------|
|-------------------------------|-------------------------------|
|-7-7-7-7-7-7-7-7-7-7-7-7-7-7-7-|-------------------------------|
|-7-7-7-7-7-7-7-7-7-7-7-7-7-7-7-|-5-5-5-5-5-5-5-5-5-5-5-5-5-5-5-|
|-5-5-5-5-5-5-5-5-5-5-5-5-5-5-5-|-5-5-5-5-5-5-5-5-5-5-5-5-5-5-5-|
|-------------------------------|-3-3-3-3-3-3-3-3-3-3-3-3-3-3-3-|


lead
|-------------------------------|-------------------------------|
|-------------------------------|-------------------------------|
|-4-4-4-4-4-4-4-4-4-6-6-6-7-7-7-|-------------------6-6-6-7-7-7-|
|-4-4-4-4-4-4-4-4-4-6-6-6-7-7-7-|-5-5-5-5-5-5-5-5-5-6-6-6-7-7-7-|
|-2-2-2-2-2-2-2-2-2-4-4-4-5-5-5-|-5-5-5-5-5-5-5-5-5-4-4-4-5-5-5-|
|-------------------------------|-3-3-3-3-3-3-3-3-3-------------|
                         
rhythem
|-------------------------------|-------------------------------|
|-------------------------------|-------------------------------|
|-4-4-4-4-4-4-4-4-4-4-4-4-4-4-4-|-------------------------------|
|-4-4-4-4-4-4-4-4-4-4-4-4-4-4-4-|-5-5-5-5-5-5-5-5-5-5-5-5-5-5-5-|
|-2-2-2-2-2-2-2-2-2-2-2-2-2-2-2-|-5-5-5-5-5-5-5-5-5-5-5-5-5-5-5-|
|-------------------------------|-3-3-3-3-3-3-3-3-3-3-3-3-3-3-3-|




lead
|-------------------------------|------------------------------|
|-------------------------------|------------------------------|
|-4-4-4-4-4-4-4-4-4-6-6-6-7-7-7-|------------------------------|
|-4-4-4-4-4-4-4-4-4-6-6-6-7-7-7-|-5------4-------7-------------|
|-2-2-2-2-2-2-2-2-2-4-4-4-5-5-5-|-5------4-------7-------------|
|-------------------------------|-3------2-------5-------------|
                         
rhythem
|-------------------------------|-------------------------------|
|-------------------------------|-------------------------------|
|-4-4-4-4-4-4-4-4-4-4-4-4-4-4-4-|-------------------------------|
|-4-4-4-4-4-4-4-4-4-4-4-4-4-4-4-|-5-5-5-5-5-5-5-5-7-------------|
|-2-2-2-2-2-2-2-2-2-2-2-2-2-2-2-|-5-5-5-5-5-5-5-5-7-------------|
|-------------------------------|-3-3-3-3-3-3-3-3-5-------------|
 
                            !!REPEAT!!

interlude

lead                clean
|-------------------------------|-------------------------------|
|-------------------------------|-------------------------------|
|-------------------------------|-------------------------------|
|--0------0---------------------|--0------0---------------------|
|----------------2------2-------|----------------2------2-2-0---|
|----2--3---2--3---2--3---7--5--|----2--3---2--3---2--3---------|

rhythem           with distortion
|-------------------------------|-------------------------------|
|-------------------------------|-------------------------------|
|-------------------------------|-------------------------------|
|-------------------------------|--0------0---------------------|
|-------------------------------|----------------2------2-2-0---|
|-------------------------------|----2--3---2--3---2--3---------|

lead                                                  
|-------------------------------|-------------------------------|
|-------------------------------|-------------------------------|
|-------------------------------|-------------------------------|
|--0------0---------------------|--5------5---------------------|
|----------------2------2-------|----------------2------2-2-0---|
|----2--3---2--3---2--3---7--5--|----2--3---2--3---2--3---------|

rhythem           		        
|-------------------------------|-------------------------------|
|-------------------------------|-------------------------------|
|-------------------------------|-------------------------------|
|--0------0---------------------|--5------5---------------------|
|----------------2------2-------|----------------2------2-2-0---|
|----2--3---2--3---2--3---7--5--|----2--3---2--3---2--3---------|




lead                                                       CLEAN
|-------------------------------|-------------------------------|
|-------------------------------|-------------------------------|
|-------------------------------|-------------------------------|
|--5--5-5-5-x-5--5-5-5--5-5--x--|--5--5-5-5-x-5--5-5-5--5-5--x--|
|--5--5-5-5-x-5--5-5-5--5-5--x--|--5--5-5-5-x-5--5-5-5--5-5--x--|
|--0--0-0-0-x-3--3-3-3--3-3--x--|--0--0-0-0-x-0--0-0-0--0-0--x--|

rhythem
|-------------------------------|-------------------------------|
|-------------------------------|-------------------------------|
|-------------------------------|-------------------------------|
|-------------------------------|-------------------------------|
|-------------------------------|-------------------------------|
|-------------------------------|-------------------------------|




lead			                              DISTORTION 
|-------------------------------|-------------------------------|
|-------------------------------|-------------------------------|
|-------------------------------|--2-2-2-2-2-2-2-2-2-2----------|
|--5--5-5-5-x-5--5-5-5--5-5--x--|--2-2-2-2-2-2-2-2-2-2----------|
|--5--5-5-5-x-5--5-5-5--5-5--x--|--0-0-0-0-0-0-0-0-0-0----------|
|--0--0-0-0-x-3--3-3-3--3-3--x--|-------------------------------|

rhythem
|-------------------------------|-------------------------------|
|-------------------------------|-------------------------------|
|-------------------------------|-------------------------------|
|-------------------------------|--7-7-7-7-7-7-7-7-7-7----------|
|-------------------------------|--7-7-7-7-7-7-7-7-7-7----------|
|-------------------------------|--5-5-5-5-5-5-5-5-5-5----------|

chorus

lead
|-------------------------------|-------------------------------|
|-------------------------------|-------------------------------|
|-7-7-7-7-7-7-7-7-7-7-7-7-7-7-7-|-------------------------------|
|-7-7-7-7-7-7-7-7-7-7-7-7-7-7-7-|-5-5-5-5-5-5-5-5-5-5-5-5-5-5-5-|
|-5-5-5-5-5-5-5-5-5-5-5-5-5-5-5-|-5-5-5-5-5-5-5-5-5-5-5-5-5-5-5-|
|-------------------------------|-3-3-3-3-3-3-3-3-3-3-3-3-3-3-3-|
                         
rhythem
|-------------------------------|-------------------------------|
|-------------------------------|-------------------------------|
|-7-7-7-7-7-7-7-7-7-7-7-7-7-7-7-|-------------------------------|
|-7-7-7-7-7-7-7-7-7-7-7-7-7-7-7-|-5-5-5-5-5-5-5-5-5-5-5-5-5-5-5-|
|-5-5-5-5-5-5-5-5-5-5-5-5-5-5-5-|-5-5-5-5-5-5-5-5-5-5-5-5-5-5-5-|
|-------------------------------|-3-3-3-3-3-3-3-3-3-3-3-3-3-3-3-|




lead
|-------------------------------|-------------------------------|
|-------------------------------|-------------------------------|
|-7-7-7-7-7-7-7-7-7-7-7-7-7-7-7-|-------------------------------|
|-7-7-7-7-7-7-7-7-7-7-7-7-7-7-7-|-5-5-5-5-5-5-5-5---------------|
|-5-5-5-5-5-5-5-5-5-5-5-5-5-5-5-|-5-5-5-5-5-5-5-5--PICK SLIDE---|
|-------------------------------|-3-3-3-3-3-3-3-3---------------|

rhythem
|-------------------------------|-------------------------------|
|-------------------------------|-------------------------------|
|-7-7-7-7-7-7-7-7-7-7-7-7-7-7-7-|-------------------------------|
|-7-7-7-7-7-7-7-7-7-7-7-7-7-7-7-|-5-5-5-5-5-5-5-5-5-5-5-5-5-5-5-|
|-5-5-5-5-5-5-5-5-5-5-5-5-5-5-5-|-5-5-5-5-5-5-5-5-5-5-5-5-5-5-5-|
|-------------------------------|-3-3-3-3-3-3-3-3-3-3-3-3-3-3-3-|




lead
|-------------------------------|-------------------------------|
|-------------------------------|-------------------------------|
|-4-4-4-4-4-4-4-4-4-6-6-6-7-7-7-|-------------------6-6-6-7-7-7-|
|-4-4-4-4-4-4-4-4-4-6-6-6-7-7-7-|-5-5-5-5-5-5-5-5-5-6-6-6-7-7-7-|
|-2-2-2-2-2-2-2-2-2-4-4-4-5-5-5-|-5-5-5-5-5-5-5-5-5-4-4-4-5-5-5-|
|-------------------------------|-3-3-3-3-3-3-3-3-3-------------|
                         
rhythem
|-------------------------------|-------------------------------|
|-------------------------------|-------------------------------|
|-4-4-4-4-4-4-4-4-4-4-4-4-4-4-4-|-------------------------------|
|-4-4-4-4-4-4-4-4-4-4-4-4-4-4-4-|-5-5-5-5-5-5-5-5-5-5-5-5-5-5-5-|
|-2-2-2-2-2-2-2-2-2-2-2-2-2-2-2-|-5-5-5-5-5-5-5-5-5-5-5-5-5-5-5-|
|-------------------------------|-3-3-3-3-3-3-3-3-3-3-3-3-3-3-3-|




lead
|-------------------------------|--------------------------------|
|-------------------------------|--------------------------------|
|-4-4-4-4-4-4-4-4-4-6-6-6-7-7-7-|--------------------------------|
|-4-4-4-4-4-4-4-4-4-6-6-6-7-7-7-|-5------4-------7---------------|
|-2-2-2-2-2-2-2-2-2-4-4-4-5-5-5-|-5------4-------7---------------|
|-------------------------------|-3------2-------5---------------|
                         
rhythem
|-------------------------------|-------------------------------|
|-------------------------------|-------------------------------|
|-4-4-4-4-4-4-4-4-4-4-4-4-4-4-4-|-------------------------------|
|-4-4-4-4-4-4-4-4-4-4-4-4-4-4-4-|-5-5-5-5-5-5-5-5-7-------------|
|-2-2-2-2-2-2-2-2-2-2-2-2-2-2-2-|-5-5-5-5-5-5-5-5-7-------------|
|-------------------------------|-3-3-3-3-3-3-3-3-5-------------|

chorus

lead
|-------------------------------|-------------------------------|
|-------------------------------|-------------------------------|
|-7-7-7-7-7-7-7-7-7-7-7-7-7-7-7-|-------------------------------|
|-7-7-7-7-7-7-7-7-7-7-7-7-7-7-7-|-5-5-5-5-5-5-5-5-5-5-5-5-5-5-5-|
|-5-5-5-5-5-5-5-5-5-5-5-5-5-5-5-|-5-5-5-5-5-5-5-5-5-5-5-5-5-5-5-|
|-------------------------------|-3-3-3-3-3-3-3-3-3-3-3-3-3-3-3-|
                         
rhythem
|-------------------------------|-------------------------------|
|-------------------------------|-------------------------------|
|-7-7-7-7-7-7-7-7-7-7-7-7-7-7-7-|-------------------------------|
|-7-7-7-7-7-7-7-7-7-7-7-7-7-7-7-|-5-5-5-5-5-5-5-5-5-5-5-5-5-5-5-|
|-5-5-5-5-5-5-5-5-5-5-5-5-5-5-5-|-5-5-5-5-5-5-5-5-5-5-5-5-5-5-5-|
|-------------------------------|-3-3-3-3-3-3-3-3-3-3-3-3-3-3-3-|




lead
|-------------------------------|-------------------------------|
|-------------------------------|-------------------------------|
|-7-7-7-7-7-7-7-7-7-7-7-7-7-7-7-|-------------------------------|
|-7-7-7-7-7-7-7-7-7-7-7-7-7-7-7-|-5-5-5-5-5-5-5-5---------------|
|-5-5-5-5-5-5-5-5-5-5-5-5-5-5-5-|-5-5-5-5-5-5-5-5~~~~~~~~~~~~~~~|
|-------------------------------|-3-3-3-3-3-3-3-3~~~~~~~~~~~~~~~|
                         
rhythem
|-------------------------------|-------------------------------|
|-------------------------------|-------------------------------|
|-7-7-7-7-7-7-7-7-7-7-7-7-7-7-7-|-------------------------------|
|-7-7-7-7-7-7-7-7-7-7-7-7-7-7-7-|-5-5-5-5-5-5-5-5-5-5-5-5-5-5-5-|
|-5-5-5-5-5-5-5-5-5-5-5-5-5-5-5-|-5-5-5-5-5-5-5-5-5-5-5-5-5-5-5-|
|-------------------------------|-3-3-3-3-3-3-3-3-3-3-3-3-3-3-3-|



lead
|-------------------------------|-------------------------------|
|-------------------------------|-------------------------------|
|-4-4-4-4-4-4-4-4-4-6-6-6-7-7-7-|-------------------6-6-6-7-7-7-|
|-4-4-4-4-4-4-4-4-4-6-6-6-7-7-7-|-5-5-5-5-5-5-5-5-5-6-6-6-7-7-7-|
|-2-2-2-2-2-2-2-2-2-4-4-4-5-5-5-|-5-5-5-5-5-5-5-5-5-4-4-4-5-5-5-|
|-------------------------------|-3-3-3-3-3-3-3-3-3-------------|
                         
rhythem
|-------------------------------|-------------------------------|
|-------------------------------|-------------------------------|
|-4-4-4-4-4-4-4-4-4-4-4-4-4-4-4-|-------------------------------|
|-4-4-4-4-4-4-4-4-4-4-4-4-4-4-4-|-5-5-5-5-5-5-5-5-5-5-5-5-5-5-5-|
|-2-2-2-2-2-2-2-2-2-2-2-2-2-2-2-|-5-5-5-5-5-5-5-5-5-5-5-5-5-5-5-|
|-------------------------------|-3-3-3-3-3-3-3-3-3-3-3-3-3-3-3-|

outro

lead
|-------------------------------|-------------------------------|
|---5-5-7-5---5---5-7-5---------|-5-5-7-5---5---5-7-5-----------|
|----7-----7-7-7-7-----7-7-7----|--7-----7-7-7-7-----7-7-7------|
|-------------------------------|-------------------------------|
|-------------------------------|-------------------------------|
|-------------------------------|-------------------------------|

rhythem
|-------------------------------|-------------------------------|
|-------------------------------|-------------------------------|
|---7-7-7-----7--7--7-----------|-------------------------------|
|---7-7-7-----7--7--7-----------|---5-5-5-----5--5--5-----------|
|---5-5-5-----5--5--5-----------|---5-5-5-----5--5--5-----------|
|-------------------------------|---3-3-3-----3--3--3-----------|
              X  X                            X  X


lead
|-------------------------------|-------------------------------|
|---5-5-7-5---5---5-7-5---------|---5---5-7-5----5-5------------|
|----7-----7-7-7-7-----7-7-7----|-----7------7-7--7-------------|
|-------------------------------|-------------------------------|
|-------------------------------|-------------------------------|
|-------------------------------|-------------------------------|

rhythem
|-------------------------------|-------------------------------|
|-------------------------------|-------------------------------|
|---7-7-7-----7--7--7-----------|-------------------------------|
|---7-7-7-----7--7--7-----------|---5-5-5-----5--5--5>----------|
|---5-5-5-----5--5--5-----------|---5-5-5-----5--5--5>----------|
|-------------------------------|---3-3-3-----3--3--3>----------|
              X  X                            X  X

----------------------------------------------------------------------------
                                SONNY
----------------------------------------------------------------------------

Tunning: Drop D

Intro/Verse 1 x6 - Guitar 1     CLEAN
E|-----------------------------------|
B|-----------------------------------|
G|-----------------------------------|
D|-11-11-xxx-99-xxx-11-11-xxx-9999-0-|
A|-x--x--xxx-xx-xxx-x--x--xxx-xxxx-x-|
D|-7--7--xxx-77-xxx-7--7--xxx-7777-0-

E|------------------------------|
B|------------------------------|
G|------------------------------|
D|-77-xxx-66-xxx-77-xxx-666-444-|
A|-xx-xxx-xx-xxx-xx-xxx-xxx-xxx-|
D|-44-xxx-44-xxx-44-xxx-444-444-| 
                        
                              
Intro/Verse 1&2 - Guitar 2                             DISTORTION
E|----------------------------------------------------------------|
B|----------------------------------------------------------------|
G|----------------------------------------------------------------|
D|-77-6h7-99-7-77-6h7-99-7-11-11-11h12-99-6h7-11-11-11h12-9-7-9-7-|
A|----------------------------------------------------------------|
D|----------------------------------------------------------------|

Chorus x2 - Guitar 1                    
E|------------------------------------------------|
B|------------------------------------------------|
G|------------------------------------------------|
D|-77777777-11111111-44-xxx-44-xxx-44-xxx-444-222-|
A|-55555555-77777777-44-xxx-44-xxx-44-xxx-444-222-|
D|-------------------44-xxx-44-xxx-44-xxx-444-222-|
             ^ - Those are 11's

Chorus x2- Guitar 2                               
E|-----------------------------------------------------------|
B|-----------------------------------------------------------|
G|-----------------------------------------------------------|
D|-77777777-11111111-13-13-xxx-13 13-xxx-13-13-xxx-1313-1111-|
A|-55555555-77777777-9--9--xxx-9--9--xxx-9--9--xxx-999--777--|
D|-----------------------------------------------------------|
             ^ - Those are 11's
                  
Pre-Verse - Both Guitars 
E|-------------------|
B|-------------------|
G|-------------------|
D|-77777777-11111111-|
A|-55555555-77777777-|
D|-------------------|

Verse - Guitar 2

Guitar 1 Cuts Out Until "Depends on the season" then:
Verse x2 - Guitar 1

Chorus x2

Bridge x2 - Guitar 1
E|-------------------------------------
B|-------------------------------------
G|-------------------------------------
D|-77777777-11111111-44444444-22222222-
A|-55555555-77777777-44444444-22222222-
D|-------------------44444444-22222222-

Bridge x2 - Guitar 2
E|-------------------------------------
B|-------------------------------------
G|-------------------------------------
D|-77777777-11111111-13131313-11111111-
A|-55555555-77777777-99999999-77777777-
D|-------------------------------------

Pre-Verse

Verse x2 - Guitar 1

Solo - Guitar 2
E|--------------------------------------------------
B|--------------------------------------------------
G|--------------------------------------------------
D|-77-6h7-99-7-11-11-11h12-99-6h7-11-11-11h12-9-7-9-
A|--------------------------------------------------
D|--------------------------------------------------

E|------------------------------
B|------------------------------
G|------------------------------
D|-77-6h7-99-/16-14-12-11-12-11-
A|------------------------------
D|------------------------------

E|----------------------------------------
B|-------------------------------17-------
G|----14----14-16----16-14----14----14----
D|-14----14-------14-------14----------14-
A|----------------------------------------
D|----------------------------------------

Chorus x2

Bridge x4

Outro - Guitar 1
E|-----------------------------------
B|-----------------------------------
G|-----------------------------------
D|-11-11-xxx-99-xxx-11-11-xxx-9999-0-
A|-x--x--xxx-xx-xxx-x--x--xxx-xxxx-x-
D|-7--7--xxx-77-xxx-7--7--xxx-7777-0-

E|---------------------------------
B|---------------------------------
G|---------------------------------
D|-77-xxx-66-xxx-77-xxx-666-444-11-
A|-xx-xxx-xx-xxx-xx-xxx-xxx-xxx-x--
D|-44-xxx-44-xxx-44-xxx-444-444-7

----------------------------------------------------------------------------
                          SOMETHING I CALL PERSONALITY
----------------------------------------------------------------------------
                            
                        Whole Song with Distortion
Intro
|------------------------------|
|------------------------------|
|-----1-2------2------2------2-| x1
|-2-4---2--4-2-2--2---2--2-4-2-|
|-------0------0----2-0------0-|
|------------------------------|


|------------------------|     |-----------|
|------------------------|     |-----------|
|-----2------2------2----| x1  |-----------| x1
|-4-6-2--4-2-2--2---2--2-|     |-x-x-x-x-x-|
|-----0------0----2-0----|     |-x-x-x-x-x-|
|------------------------|     |-x-x-x-x-x-|


|----------------------------|     |-----------|
|----------------------------|     |-----------|
|-----2------2------2------2-| x2  |-----------| x1
|-4-6-2--4-2-2--2---2--2-4-2-|     |-x-x-x-x-x-|
|-----0------0----2-0------0-|     |-x-x-x-x-x-|
|----------------------------|     |-x-x-x-x-x-|


Verse
|----------------------------------------------|
|----------------------------------------------|
|----------------------------------------------| x1
|-7-2--5-7--9-7--5-7--7-2--5-7--9-7--7-7-7-7-7-|
|-7-2--5-7--9-7--5-7--7-2--5-7--9-7--7-7-7-7-7-|
|-5-0--3-5--7-5--3-5--5-0--3-5--7-5--5-5-5-5-5-|
                                       X X X X


|------------------------------------------------------------------|
|------------------------------------------------------------------|
|------------------------------------------------------------------| x1
|-7-2-2-2-2--5-7-7-7-7--9-7-7-7-7--5-7-7-7-7--7-2-2-2-2--5-7-7-7-7-|
|-7-2-2-2-2--5-7-7-7-7--9-7-7-7-7--5-7-7-7-7--7-2-2-2-2--5-7-7-7-7-|
|-5-0-0-0-0--3-5-5-5-5--7-5-5-5-5--3-5-5-5-5--5-0-0-0-0--3-5-5-5-5-|
      X X X      X X X      X X X      X X X      X X X      X X X


Pre-Chorus
|--------------|
|-2-2-2--4-4-4-|
|-2-2-2--4-4-4-| x1
|-2-2-2--4-4-4-|
|-0-0-0--2-2-2-|
|--------------|


Chorus
|-----------------------------------------------------------------|
|-----------------------------------------6-6-6-6-5-5-5-5-6-6-6-6-|
|-----------------6-6-6-6---------2-2-2-2-6-6-6-6-5-5-5-5-6-6-6-6-| x2
|-2-2-2-2-5-5-5-5-6-6-6-6-4-4-4-4-2-2-2-2-6-6-6-6-5-5-5-5-6-6-6-6-|
|-2-2-2-2-5-5-5-5-4-4-4-4-4-4-4-4-0-0-0-0-4-4-4-4-3-3-3-3-4-4-4-4-|
|-0-0-0-0-3-3-3-3---------2-2-2-2---------------------------------|


|------------------------------|
|------------------------------|
|-----1-2------2------2------2-| x1
|-2-4---2--4-2-2--2---2--2-4-2-|
|-------0------0----2-0------0-|
|------------------------------|


|------------------------|     |-----------|
|------------------------|     |-----------|
|-----2------2------2----| x1  |-----------| x1
|-4-6-2--4-2-2--2---2--2-|     |-x-x-x-x-x-|
|-----0------0----2-0----|     |-x-x-x-x-x-|
|------------------------|     |-x-x-x-x-x-|


|----------------------------|     |-----------|
|----------------------------|     |-----------|
|-----2------2------2------2-| x2  |-----------| x1
|-4-6-2--4-2-2--2---2--2-4-2-|     |-x-x-x-x-x-|
|-----0------0----2-0------0-|     |-x-x-x-x-x-|
|----------------------------|     |-x-x-x-x-x-|


Verse
|----------------------------------------------|
|----------------------------------------------|
|----------------------------------------------| x1
|-7-2--5-7--9-7--5-7--7-2--5-7--9-7--7-7-7-7-7-|
|-7-2--5-7--9-7--5-7--7-2--5-7--9-7--7-7-7-7-7-|
|-5-0--3-5--7-5--3-5--5-0--3-5--7-5--5-5-5-5-5-|
                                       X X X X 

|------------------------------------------------------------------|
|------------------------------------------------------------------|
|------------------------------------------------------------------| x1
|-7-2-2-2-2--5-7-7-7-7--9-7-7-7-7--5-7-7-7-7--7-2-2-2-2--5-7-7-7-7-|
|-7-2-2-2-2--5-7-7-7-7--9-7-7-7-7--5-7-7-7-7--7-2-2-2-2--5-7-7-7-7-|
|-5-0-0-0-0--3-5-5-5-5--7-5-5-5-5--3-5-5-5-5--5-0-0-0-0--3-5-5-5-5-|
      X X X      X X X      X X X      X X X      X X X      X X X 
[ Tab from: http://www.guitaretab.com/n/new-found-glory/133807.html ]
Pre-Chorus
|--------------|
|-2-2-2--4-4-4-|
|-2-2-2--4-4-4-| x1
|-2-2-2--4-4-4-|
|-0-0-0--2-2-2-|
|--------------|


Chorus
|-----------------------------------------------------------------|
|-----------------------------------------6-6-6-6-5-5-5-5-6-6-6-6-|
|-----------------6-6-6-6---------2-2-2-2-6-6-6-6-5-5-5-5-6-6-6-6-| x4
|-2-2-2-2-5-5-5-5-6-6-6-6-4-4-4-4-2-2-2-2-6-6-6-6-5-5-5-5-6-6-6-6-|
|-2-2-2-2-5-5-5-5-4-4-4-4-4-4-4-4-0-0-0-0-4-4-4-4-3-3-3-3-4-4-4-4-|
|-0-0-0-0-3-3-3-3---------2-2-2-2---------------------------------|

(Bass and Drums only until...)
Bridge
|---------------------|
|---------------------|
|-5-5-----------------| x1
|-5-5--2--------------|
|-3-3----2----2/7---2-|
|---------------------|


|------------------------------------------|
|------------------------------------------|
|---------------------2-4-4-4-4--4-2-2-2-2-| x1
|-2-2-2-2--5-7-7-7-7--2-4-4-4-4--4-2-2-2-2-|
|-2-2-2-2--5-7-7-7-7--0-2-2-2-2--2-0-0-0-0-|
|-0-0-0-0--3-5-5-5-5-----------------------|
    X X X      X X X      X X X      X X X


|--------------------------------------------|
|--------------------------------------------|
|-----------------------2-4-4-4-4--4-2-2-2-2-|x3
|-7-2-2-2-2--5-7-7-7-7--2-4-4-4-4--4-2-2-2-2-|
|-7-2-2-2-2--5-7-7-7-7--0-2-2-2-2--2-0-0-0-0-|
|-5-0-0-0-0--3-5-5-5-5-----------------------|
      X X X      X X X      X X X      X X X 

Chorus
|-----------------------------------------------------------------|
|-----------------------------------------6-6-6-6-5-5-5-5-6-6-6-6-|
|-----------------6-6-6-6---------2-2-2-2-6-6-6-6-5-5-5-5-6-6-6-6-| x4
|-2-2-2-2-5-5-5-5-6-6-6-6-4-4-4-4-2-2-2-2-6-6-6-6-5-5-5-5-6-6-6-6-|
|-2-2-2-2-5-5-5-5-4-4-4-4-4-4-4-4-0-0-0-0-4-4-4-4-3-3-3-3-4-4-4-4-|
|-0-0-0-0-3-3-3-3---------2-2-2-2---------------------------------|


Outro
|------------------------------|
|------------------------------|
|-----1-2------2------2------2-| x1
|-2-4---2--4-2-2--2---2--2-4-2-|
|-------0------0----2-0------0-|
|------------------------------|


|------------------------|     |-----------|
|------------------------|     |-----------|
|-----2------2------2----| x1  |-----------| x1
|-4-6-2--4-2-2--2---2--2-|     |-x-x-x-x-x-|
|-----0------0----2-0----|     |-x-x-x-x-x-|
|------------------------|     |-x-x-x-x-x-|


|----------------------------|     |---------------|
|----------------------------|     |---------------|
|-----2------2------2------2-| x2  |-----------4---| x1
|-4-6-2--4-2-2--2---2--2-4-2-|     |-x-x-x-x-x-4-2-|
|-----0------0----2-0------0-|     |-x-x-x-x-x-2-2-|
|----------------------------|     |-x-x-x-x-x---0-|


----------------------------------------------------------------------------
                           HEAD ON COLLISION
----------------------------------------------------------------------------

Intro                             DISTORTION
e|------------------------------------------|
B|------------------------------------------|
G|------------------------------------------|
D|--5-4-5-7-5-4-5-4-5-4-5-7-5-4-5-4---------|
A|------------------------------------------|
E|------------------------------------------|

Intro Part 2
e|--------------------------------------------------|
B|--------------------------------------------------|
G|-2222-x-444444444--777-666-777-666-777-666--------|
D|-2222-x-444444444--777-666-777-666-777-666--------|
A|-0000-x-222222222--555-444-555-444-555-444--------|
E|--------------------------------------------------|

e|-----------------------------------------|
B|-----------------------------------------|
G|--2222-x-4444444444----------------------|
D|--2222-x-4444444444----------------------|
A|--0000-x-2222222222----------------------|
E|-----------------------------------------|

e|------------------------------------------|
B|------------------------------------------|
G|------------------------------------------|
D|--5-4-5-7-5-4-5-4-5-4-5-7-5-4-5-4---------|
A|------------------------------------------|
E|------------------------------------------|


Verse                                          CLEAN
e|--------------------------------------------------|
B|--------------------------------------------------|
G|--2--22-------------------------------------------|
D|--2--22---6--66-----------------------------------| x2    
A|--0--00---4--44-----------------------------------|
E|----------4--44-----------------------------------|


e|--------------------------------------------------|
B|--------------------------------------------------|
G|--2222222222--------------------------------------|
D|--2222222222--6666666666--------------------------| x2
A|--0000000000--4444444444--------------------------|
E|--------------4444444444--------------------------|

Pre-Chorus                                DISTORTION
e|--------------------------------------------------|
B|--------------------------------------------------|
G|--------------------------------------------------|
D|--222222222222222222---22222222-------------------|
A|--222222222222222222---22222222-------------------|
E|--222222222222222222---22222222-------------------|
                         xxxxxxxx

Chorus
e|--------------------------|
B|--------------------------|
G|--2222-x-4444444444-------| x3
D|--2222-x-4444444444-------|
A|--0000-x-2222222222-------|
E|--------------------------|

e|------------------------------------------|
B|------------------------------------------|
G|------------------------------------------|
D|--5-4-5-7-5-4-5-4-5-4-5-7-5-4-5-4---------|
A|------------------------------------------|
E|------------------------------------------|

e|--------------------------|
B|--------------------------|
G|--2222-x-4444444444-------| x3
D|--2222-x-4444444444-------|
A|--0000-x-2222222222-------|
E|--------------------------|

e|------------------------------------------|
B|------------------------------------------|
G|------------------------------------------|
D|--5-4-5-7-5-4-5-4-5-4-5-7-5-4-5-4---------|
A|------------------------------------------|
E|------------------------------------------|


Verse x 1
Pre Chorus x 1
Chorus x 1


Solo                                                        DISTORTION
e|---------------------------------------------------------------------|
B|---------------------------------------------------------------------|
G|----------6-------9-------6---6h7p6----------------------------------|
D|------7-------7-------7----------------7---9---7-------6-7-----6-7---| x4
A|--0-0---0---0---0---0---0---0-------77---7---7---7-5-5-----7-7-------|
E|---------------------------------------------------------------------|

e|--------------------------------------------------|
B|--------------------------------------------------|
G|--------------------------------------------------|
D|--7777777----6-7---6-7--7777777----6-7---6-7------|x5
A|--7777777--55---77------7777777--55---77----------|
E|--5555555---------------5555555-------------------|

e|------------------|
B|------------------|
G|------------------|
D|--777777777-------|
A|--777777777-------|
E|--555555555-------|

Chorus x1

Solo riff 2
e|--------------------------------------------------|
B|--------------------------------------------------|
G|---------6-------9-------6---6h7p6----------------|
D|-----7-------7-------7----------------------------|    x6
A|--00---0---0---0---0---0---0----------------------|
E|--------------------------------------------------|

Outro
e|--------------------------------------------------|
B|--------------------------------------------------|
G|-2222-x-444444444--777-666-777-666-777-666--------|
D|-2222-x-444444444--777-666-777-666-777-666--------|
A|-0000-x-222222222--555-444-555-444-555-444--------|
E|--------------------------------------------------|

e|------------------------------------------|
B|------------------------------------------|
G|------------------------------------------|
D|--5-4-5-7-5-4-5-4-5-4-5-7-5-4-5-4--7------|
A|-----------------------------------7------|
E|-----------------------------------5------|

----------------------------------------------------------------------------
                            IT'S BEEN A SUMMER
----------------------------------------------------------------------------
                      Both guitars use medium distortion 
INTRO - Guitar 1  x1                         
e|------------------------------------------------------------------|
B|------------------------------------------------------------------|
G|------------------------------------------------------------------|
D|-----------------0-0-0-0-0-0-0------------------------------------|
A|-------------------------------0-2-2-2-4-0-0-0-2------------------|
D|--0-0-0-0-0-0-0-0----------------------------------5-5-5-5-4-2-4--|


Then both guitars   x1  
e|------------------------------------------------------------------|
B|------------------------------------------------------------------|
G|------------------------------------------------------------------|
D|-----------------0-0-0-0-0-0-0---------------------5-5-5-5-4-2-4--|
A|-------------------------------0-2-2-2-4-0-0-0-2---5-5-5-5-4-2-4--|
D|--0-0-0-0-0-0-0-0----------------------------------5-5-5-5-4-2-4--|


Both guitars  x2  
e|-------------------------------------------------------------------------|
B|-------------------------------------------------------------------------|
G|-------------------------------------------------------------------------|
D|--0-0-0-0-0-0-0-0-12-12-12-12-12-12-12-7-9-9-9-11-7-7-7-9-5-5-5-5-4-2-4--|
A|--0-0-0-0-0-0-0-0-12-12-12-12-12-12-12-7-9-9-9-11-7-7-7-9-5-5-5-5-4-2-4--|
D|--0-0-0-0-0-0-0-0-12-12-12-12-12-12-12-7-9-9-9-11-7-7-7-9-5-5-5-5-4-2-4--|



VERSE - Both guitars x2  
e|--------------------------------------------------------------|
B|--------------------------------------------------------------|
G|--------------------------------------------------------------|
D|--0-0-0-0-0-0-0-0-0-0-0-0-0-0-0-0-5-5-5--5-5-5--5-5-5--5-5-5--|
A|--0-0-0-0-0-0-0-0-0-0-0-0-0-0-0-0-5-5-5--5-5-5--5-5-5--5-5-5--|
D|--0-0-0-0-0-0-0-0-0-0-0-0-0-0-0-0-5-5-5--5-5-5--5-5-5--5-5-5--|
    x x x x x x x x x x x x x x x x x x    x x    x x    x x


While Guitar 1 does this another 2 times Guitar 2 fills with this  x2  
e|-----------------------------------------------------------|
B|-----------------------------------------------------------|
G|-----------------------------------------------------------|
D|-----------------------------------------------------------|
A|--17-17-17-17-16-16-14-14-12-12-12-14-10-10-10-12-9-9-9-10-|
D|-----------------------------------------------------------|
    x  x  x  x  x  x  x  x  x  x  x  x  x  x  x  x  x x x  x 
e|------------------------|
B|------------------------|
G|------------------------|
D|------------------------|
A|7-7-7-5-9-9-9-10-7-7-7--|
D|------------------------|  
  x x x x x x x  x x x x 

PRE-CHORUS - Guitar 1  x2  
e|---------------------|
B|---------------------|
G|---------------------|
D|--22222222-55555555--|   
A|--22222222-55555555--|
D|--22222222-55555555--|


Guitar 2  x2  
e|--------------------|
B|--------------------|
G|--4444444-77777777--|
D|--xxxxxxx-xxxxxxxx--|
A|--2222222-55555555--|
D|--------------------|


CHORUS - Guitar 1  x8  
e|-----------------------|
B|-----------------------|
G|-----------------------|
D|--0-0--2-2--5-5555555--|
A|--0-0--2-2--5-5555555--|
D|--0-0--2-2--5-5555555--|


Guitar 2  x8  
e|-------------------------------|--------------------|
B|-------------------------------|--------------------|
G|--7-7--9-9--12-12121212121212--|--1211121112111211--|
D|--x-x--x-x--xx-xxxxxxxxxxxxxx--|--xxxxxxxxxxxxxxxx--|  
A|--5-5--7-7--10-10101010101010--|--10-910-910-910-9--|
D|-------------------------------|--------------------|


Both Guitars x2  
e|-------------------------------------------------------------------------|
B|-------------------------------------------------------------------------|
G|-------------------------------------------------------------------------|
D|--0-0-0-0-0-0-0-0-12-12-12-12-12-12-12-7-9-9-9-11-7-7-7-9-5-5-5-5-4-2-4--|
A|--0-0-0-0-0-0-0-0-12-12-12-12-12-12-12-7-9-9-9-11-7-7-7-9-5-5-5-5-4-2-4--|
D|--0-0-0-0-0-0-0-0-12-12-12-12-12-12-12-7-9-9-9-11-7-7-7-9-5-5-5-5-4-2-4--|


VERSE - Both Guitars  x2  
e|--------------------------------------------------------------|
B|--------------------------------------------------------------|
G|--------------------------------------------------------------|
D|--0-0-0-0-0-0-0-0-0-0-0-0-0-0-0-0-5-5-5--5-5-5--5-5-5--5-5-5--|
A|--0-0-0-0-0-0-0-0-0-0-0-0-0-0-0-0-5-5-5--5-5-5--5-5-5--5-5-5--|
D|--0-0-0-0-0-0-0-0-0-0-0-0-0-0-0-0-5-5-5--5-5-5--5-5-5--5-5-5--|
    X X X X X X X X X X X X X X X X X X    X X    X X    X X

While Guitar 1 does this another 2 times Guitar 2 fills with this  x2  
e|-----------------------------------------------------------|
B|-----------------------------------------------------------|
G|-----------------------------------------------------------|
D|-----------------------------------------------------------|
A|--17-17-17-17-16-16-14-14-12-12-12-14-10-10-10-12-9-9-9-10-|
D|-----------------------------------------------------------|
    x  x  x  x  x  x  x  x  x  x  x  x  x  x  x  x  x x x  x 
e|------------------------|
B|------------------------|
G|------------------------|
D|------------------------|
A|7-7-7-5-9-9-9-10-7-7-7--|
D|------------------------|  
  x x x x x x x  x x x x 

PRE-CHORUS - Guitar 1  x2  
e|---------------------|
B|---------------------|
G|---------------------|
D|--22222222-55555555--|
A|--22222222-55555555--|
D|--22222222-55555555--|


Guitar 2  x2  
e|--------------------|
B|--------------------|
G|--4444444-77777777--|
D|--xxxxxxx-xxxxxxxx--|
A|--2222222-55555555--|
D|--------------------|


CHORUS - Guitar 1  x8  
e|-----------------------|
B|-----------------------|
G|-----------------------|
D|--0-0--2-2--5-5555555--|  
A|--0-0--2-2--5-5555555--|
D|--0-0--2-2--5-5555555--|


Guitar 2  x8  
e|-------------------------------|
B|-------------------------------|
G|--7-7--9-9--12-12121212121212--|
D|--x-x--x-x--xx-xxxxxxxxxxxxxx--|
A|--5-5--7-7--10-10101010101010--|
D|-------------------------------|

                                               
BRIDGE - Both Guitars  x4  
e|------------------------------------|    
B|------------------------------------|    
G|------------------------------------|   
D|--0-0-0-0-2-2-2-2-5-5-5-5-5-5-5-55--|    
A|--0-0-0-0-2-2-2-2-5-5-5-5-5-5-5-55--|   
D|--0-0-0-0-2-2-2-2-5-5-5-5-5-5-5-55--|   


INTERLUDE (CLEAN) - Guitar 2  x1  
e|-------------------------------------------------------|
B|-------------------------------------------------------|
G|-------------------------------------------------------|  
D|------22-----------------------------------------------|     
A|----22--22--55-44-5/7--44-77-5-55-44-55-7-555-44-55-7--|
D|--22------55----------5--------------------------------|


CHORUS - Guitar 1  x8  
e|-----------------------|
B|-----------------------|
G|-----------------------|
D|--0-0--2-2--5-5555555--|
A|--0-0--2-2--5-5555555--|
D|--0-0--2-2--5-5555555--|


Guitar 2  x8  
e|-------------------------------|
B|-------------------------------|
G|--7-7--9-9--12-12121212121212--|
D|--x-x--x-x--xx-xxxxxxxxxxxxxx--|
A|--5-5--7-7--10-10101010101010--|
D|-------------------------------|


Both Guitars x2  
e|-------------------------------------------------------------------------|
B|-------------------------------------------------------------------------|
G|-------------------------------------------------------------------------|
D|--0-0-0-0-0-0-0-0-12-12-12-12-12-12-12-7-9-9-9-11-7-7-7-9-5-5-5-5-4-2-4--|
A|--0-0-0-0-0-0-0-0-12-12-12-12-12-12-12-7-9-9-9-11-7-7-7-9-5-5-5-5-4-2-4--|
D|--0-0-0-0-0-0-0-0-12-12-12-12-12-12-12-7-9-9-9-11-7-7-7-9-5-5-5-5-4-2-4--|

----------------------------------------------------------------------------
                              FORGET MY NAME
----------------------------------------------------------------------------

Chorus                                          CLEAN

e|------------------------------------------------------|            
B|------------------------------------------------------| 
G|-4--4-4-4-4-4-----------------------------------------|x4           
D|-4--4-4-4-4-4-44-6-2--2-2-2-2-2-----------------------|            
A|-2--2-2-2-2-2-44-6-2--2-2-2-2-2-----------------------|     
E|--------------22-4-0--0-0-0-0-0-----------------------|  
                                                             
Post Chorus   DISTORTION                                                   
e|---------------------|                                          
B|---------------------|                                           
G|--4-4--4-4--4-x-x-x-x|                                       
D|--4-4--4-4--4-x-x-x-x|                                        
A|--2-2--2-2--2-x-x-x-x|                                        
E|---------------------|                                          

Verse                                                              
e|------------------------------------------------------------------|
B|------------------------------------------------------------------|
G|--4-4-4-4-4-4-4-4-------------------------------------------------|
D|--4-4-4-4-4-4-4-4-2-2-2-2-2-2-2-2-6-6-6-6-6-6-6-6-4-4-4-4-4-4-4-4-|X2
A|--2-2-2-2-2-2-2-2-2-2-2-2-2-2-2-2-6-6-6-6-6-6-6-6-4-4-4-4-4-4-4-4-|
E|------------------0-0-0-0-0-0-0-0-4-4-4-4-4-4-4-4-2-2-2-2-2-2-2-2-|

Pre - Chorus

e|---------------------------------------------------------|
B|---------------------------------------------------------|
G|--6--6-6-6-6-6--9--9-9-9-9-9-----------------------------|
D|--6--6-6-6-6-6--9--9-9-9-9-9--6--6-6-6-6-6--4--4-4-4-4-4-|X2
A|--4--4-4-4-4-4--7--7-7-7-7-7--6--6-6-6-6-6--4--4-4-4-4-4-|
E|------------------------------4--4-4-4-4-4--2--2-2-2-2-2-|


Chorus x4
Post-Chorus
Verse  x2
Pre-Chorus 
Chorus x4
Post Chorus x2

Interlude

e|---------------------------------------------------------|
B|---------------------------------------------------------|
G|--4>------4-4--4-4---------------------------------------|
D|--4>------4-4--4-4--2-2--2-2--6-6--6-6--2-2--4-4---------|x2
A|--2>------2-2--2-2--2-2--2-2--6-6--6-6--2-2--4-4---------|
E|--2>----------------0-0--0-0--4-4--4-4--0-0--2-2---------|

Pre - Chorus 2

e|-----------------------------------|
B|-----------------------------------|
G|-----------------------------------|
D|-4-4-4-4-4-4-4-4-4-4-4-4-4-4-4-4---|
A|-4-4-4-4-4-4-4-4-4-4-4-4-4-4-4-4---|
E|-2-2-2-2-2-2-2-2-2-2-2-2-2-2-2-2---|
   X X X X X X X X X X X X X X X X

Chorus x4
Post-Chorus


Outro

Guitar 1
e-----------------------------
b-454242-2--4545242-2---------
g-------4----------4-4--------x2
d---------4-------------------
a-----------------------------
e-----------------------------

Guitar 2
e|-------------------|
B|-------------------|
G|--4-4-4-4----------|
D|--4-4-4-4-4-4-6-2>-|
A|--2-2-2-2-4-4-6-2>-|
E|----------2-2-4-0>-|

----------------------------------------------------------------------------
                               NEVER GIVE UP
----------------------------------------------------------------------------

Intro                             
Once CLEAN 
Once DISTORTION                                                   
 e|--------------------------------------------------------------------| 
 B|--------------------------------------------------------------------| 
 G|-6-6--6--6-6--x--9-9--9--9-9--x--6-6--6--6-6--x--4-4-4--------------| 
 D|-7-7--7--7-7--x--6-6--6--6-6--x--4-4--4--4-4--x--2-2-2--------------| 
 A|---------------------------------------------------------0-0-0-0----| 
 E|--------------------------------------------------------------------| 
                                                            X X X X

Guitar 2 
Verse                                                  DISTORTION
 e|--------------------------------------------------------------| 
 B|--------------------------------------------------------------| 
 G|-2-----2-2-2-2--x--6-6-6-6--x---------------------------------| 
 D|-2-----2-2-2-2--x--6-6-6-6--x--4-4-4-4--x--2-2-2-2--x---------|x4 
 A|-0-----0-0-0-0--x--4-4-4-4--x--4-4-4-4--x--2-2-2-2--x---------| 
 E|-------------------------------2-2-2-2--x--0-0-0-0--x---------|

Guitar 1
Verse    
 e|-------------------------------------------------------------| 
 B|-------------------------------------------------------------| 
 G|-2----6-6-6-6--x--9-9-9-9--x--6-6-6-6--x--4-4-4-4--x---------| 
 D|-2----7-7-7-7--x--6-6-6-6--x--4-4-4-4--x--2-2-2-2--x---------|x4 
 A|-0-----------------------------------------------------------| 
 E|-------------------------------------------------------------|

Pre-Chorus
 e|--------------------------------------------------------------| 
 B|--------------------------------------------------------------| 
 G|---------------------------2-2-2-2-2-2------------------------| 
 D|-4-4-4-4-4-4--2-2-2-2-2-2--2-2-2-2-2-2--2-2-2-2-2-2-----------|x2 
 A|-4-4-4-4-4-4--2-2-2-2-2-2--0-0-0-0-0-0--2-2-2-2-2-2-----------| 
 E|-2-2-2-2-2-2--0-0-0-0-0-0---------------0-0-0-0-0-0--0-0-0-0--|
                                                        X X X X

Chorus - Guitar 1
 e|--------------0-----------------0-----------------------------| 
 B|-----2-----------------2--------------------------------------| 
 G|---2----2---2----2---2---2----2----2--------------------------| 
 D|----------2------------2--------------------------------------|x4 
 A|-0-----------------0-----0--0---------------------------------| 
 E|--------------------------------------------------------------| 

Guitar 2 x4
 e|-----------------------------------------------------------------------| 
 B|-----------------------------------------------------------------------| 
 G|-2-2-2-2--7-7-7-7-----------7-7-7-7--2-2-2-2--7-7-7-7------------------| 
 D|-2-2-2-2--7-7-7-7--4-4-4-4--7-7-7-7--2-2-2-2--7-7-7-7--4-4-4-4--2-2-2-2| 
 A|-0-0-0-0--5-5-5-5--4-4-4-4--5-5-5-5--0-0-0-0--5-5-5-5--4-4-4-4--2-2-2-2| 
 E|-------------------2-2-2-2-----------------------------2-2-2-2--0-0-0-0|

Verse x4 
Pre Chorus x2 
Chorus x4

Interlude 
 e|--------------------------------------------------------------------| 
 B|--------------------------------------------------------------------| 
 G|-2--x-2--x-7--x-7------------x-7--x-7-------------------------------| 
 D|-2--x-2--x-7--x-7--x-2--x-2--x-7--x-7-------------------------------| 
 A|-0--x-0--x-5--x-5--x-2--x-2--x-5--x-5-------------------------------| 
 E|-------------------x-0--x-0-----------------------------------------|


 e|--------------------------------------------------------------------| 
 B|--------------------------------------------------------------------| 
 G|-9--x-9-11-9-x-7-6-7-x-4-4--7--6--4--6--9--x-9-11-9-x-7-6-7-x-4-4---| 
 D|-x--x-x-x--x-x-x-x-x-x-x-x--x--x--x--x--x--x-x-x--x-x-x-x-x-x-x-x---| 
 A|-7--x-7-9--7-x-5-4-5-x-2-2--5--4--2--4--7--x-7-9--7-x-5-4-5-x-2-2---| 
 E|--------------------------------------------------------------------|
 
Chorus x4
Intro x1

----------------------------------------------------------------------------
                            GREAT HOUDINI
----------------------------------------------------------------------------

INTRO
                CLEAN 
E|-------------------------------------------|
B|-------------------------------------------|
G|--------------------------------1-1-1-1----|
D|--9-9-9-9-9-9-9-9----6-6-6-6----2-2-2-2----|
A|--9-9-9-9-9-9-9-9----6-6-6-6----2-2-2-2----|
E|--7-7-7-7-7-7-7-7----4-4-4-4----0-0-0-0----| x 3
    X X X X X X X X    X X X X    X X X X 

                                   DISTORTION
E|------------------------------------------|
B|------------------------------------------|
G|--------------------------------1----1----|
D|--9-9-9-9-9-9-9-9----6-6-6-6----2----2----|
A|--9-9-9-9-9-9-9-9----6-6-6-6----2----2----|
E|--7-7-7-7-7-7-7-7----4-4-4-4----0----0----|
    X X X X X X X X    X X X X    X    X

VERSE 1

E|----------------------------------------------------------|
B|----------------------------------------------------------|
G|--------------------------------------------1-x-x--1-1----|
D|--9-x-x--9-9----8-x-x--8-8----6-x-x--6-6----2-x-x--2-2----|
A|--9-x-x--9-9----8-x-x--8-8----6-x-x--6-6----2-x-x--2-2----|
E|--7-x-x--7-7----6-x-x--6-6----4-x-x--4-4----0-x-x--0-0----|

E|------------------------------------------------------|
B|------------------------------------------------------|
G|--------------------------------------------1----1----|
D|--9-x-x--9-9----8-x-x--8-8----6-x-x--6-6----2----2----|
A|--9-x-x--9-9----8-x-x--8-8----6-x-x--6-6----2----2----|
E|--7-x-x--7-7----6-x-x--6-6----4-x-x--4-4----0----0----|

E|----------------------------------------------------------|
B|----------------------------------------------------------|
G|--------------------------------------------1-x-x--1-1----|
D|--9-x-x--9-9----8-x-x--8-8----6-x-x--6-6----2-x-x--2-2----|
A|--9-x-x--9-9----8-x-x--8-8----6-x-x--6-6----2-x-x--2-2----|
E|--7-x-x--7-7----6-x-x--6-6----4-x-x--4-4----0-x-x--0-0----|

E|------------------------------------------------------|
B|------------------------------------------------------|
G|--------------------------------------------1----1----|
D|--9-x-x--9-9----8-x-x--8-8----6-x-x--6-6----2----2----|
A|--9-x-x--9-9----8-x-x--8-8----6-x-x--6-6----2----2----|
E|--7-x-x--7-7----6-x-x--6-6----4-x-x--4-4----0----0----|

PRE-CHORUS

E|------------------------------------------------------------------|
B|------------------------------------------------------------------|
G|----------------------------------1---1--1-1-1--------------------|
D|--4---4--4-4-4----4---4--4-4-4----2---2--2-2-2----4-x-x-x-x--4----|
A|--4---4--4-4-4----4---4--4-4-4----2---2--2-2-2----4-x-x-x-x--4----|
E|--2---2--2-2-2----2---2--2-2-2----0---0--0-0-0----2-x-x-x-x--2----|

CHORUS

E|--------------------------------------|
B|--------------------------------------|
G|-----------------------------1---1----|
D|--9---9----8---8----6---6----2---2----|
A|--9---9----8---8----6---6----2---2----|
E|--7---7----6---6----4---4----0---0----| x 3

E|-------------------------------------------|
B|-------------------------------------------|
G|----------------------1-x-x-x-x--1----4----|
D|--4----4----4----4----2-x-x-x-x--2----4----|
A|--4----4----4----4----2-x-x-x-x--2----2----|
E|--2----2----2----2----0-x-x-x-x--0---------|

                                   CLEAN
E|-------------------------------------------|
B|-------------------------------------------|
G|--------------------------------1-1-1-1----|
D|--9-9-9-9-9-9-9-9----6-6-6-6----2-2-2-2----|
A|--9-9-9-9-9-9-9-9----6-6-6-6----2-2-2-2----|
E|--7-7-7-7-7-7-7-7----4-4-4-4----0-0-0-0----| x 3
    X X X X X X X X    X X X X    X X X X
                                  DISTORTION
E|------------------------------------------|
B|------------------------------------------|
G|--------------------------------1----1----|
D|--9-9-9-9-9-9-9-9----6-6-6-6----2----2----|
A|--9-9-9-9-9-9-9-9----6-6-6-6----2----2----|
E|--7-7-7-7-7-7-7-7----4-4-4-4----0----0----|
    X X X X X X X X    X X X X    X    X

VERSE 2

PRE-CHORUS

CHORUS

PRE-CHORUS
                              CLEAN
E|--------------------------------------|
B|--------------------------------------|
G|-----------------------------1---1----|
D|--9---9----8---8----6---6----2---2----|
A|--9---9----8---8----6---6----2---2----|
E|--7---7----6---6----4---4----0---0----| x 3

E|---------------------|      
B|---------------------|
G|----------------1----|
D|--4----4-4-4----2----|
A|--4----4-4-4----2----|
E|--2----2-2-2----0----|

INTERLUDE

E|----------------------------|
B|----------------------------|
G|----------------------------|
D|--------------------1--2----|
A|--------------2--4----------|
E|--0--2--4--5----------------|

CHORUS

END WITH

E|---------------------------------------------------------------|
B|---------------------------------------------------------------|
G|-------------------------------1----1----1----1----------------|
D|--4---4---4---4---4---4---4---4---2---2---2---2---4-x-x-x-x--4-|
A|--4---4---4---4---4---4---4---4---2---2---2---2---4-x-x-x-x--4-|
E|--2---2---2---2---2---2---2---2---0---0---0---0---2-x-x-x-x--2-|

----------------------------------------------------------------------------
                              SINGLED OUT
----------------------------------------------------------------------------
 
 Guitar 1: Standard Tuning
 Guitar 2: Drop D Tuning

Intro                           EFFECTS
e|--------------------------------------|
B|--------------------------------------|
G|-5-3--3-5-3-5-7-5-3-3-5-3--5-7---5-7--|2X
D|--------------------------5----3------|
A|--------------------------------------|
E|--------------------------------------| 

Guitar 1:                                     DISTORTION
e|-----------------------------------------------------------|
B|-----------------------------------------------------------|
G|-10-7-5-7-5-3--10-12-10-5-10--10-7-5-7-5-3--5-3-8-5-3-5-3--|
D|--x-x-x-x-x-x---x--x--x-x--x---x-x-x-x-x-x--x-x-x-x-x-x-x--|
A|--8-5-3-5-3-1---8-10--8-3--8---8-5-3-5-3-1--3-1-6-3-1-3-1--|
E|-----------------------------------------------------------|

Guitar 2:
e|----------------------------------------|
B|----------------------------------------|
G|--------3-3-3--5-5-5--8-8-8--5-5--3-3>--|
D|-5-5-5--3-3-3--5-5-5--8-8-8--5-5--3-3>--|
A|-5-5-5--1-1-1--3-3-3--6-6-6--3-3--1-1>--|
D|-5-5-5----------------------------------|

Verse:

e|-----------------------------------|
B|-----------------------------------|
G|--------3-3-3--5-5-5--8-8-8-7-3-5--|
D|-5-5-5--3-3-3--5-5-5--8-8-8-7-3-5--|3X
A|-5-5-5--1-1-1--3-3-3--6-6-6-5-1-3--|
E|-3-3-3-----------------------------|
     X X    X X    X X    X X  
e|-----------------------------|
B|-----------------------------|
G|--------3-3-3--5-5-5--8-8-8--|
D|-5-5-5--3-3-3--5-5-5--8-8-8--|
A|-5-5-5--1-1-1--3-3-3--6-6-6--|
E|-3-3-3-----------------------|

Chorus:

e|-------------------------------------|
B|-------------------------------------|
G|-3-3-3-3--8-8-8-8--------------------|
D|-3-3-3-3--8-8-8-8--5-5-5-5--3-3-3-3--|2X
A|-1-1-1-1--6-6-6-6--5-5-5-5--3-3-3-3--|
E|-------------------3-3-3-3--1-1-1-1--|


Verse
Chorus

Solo:

e|--------------------------------------|
B|--------------------------------------|
G|-5-3--3-5-3-5-7-5-3-3-5-3--5-7---5-7--|
D|--------------------------5----3------|
A|--------------------------------------|
E|--------------------------------------|



 BRIDGE guitar 2    
E|------------------------------------------|
B|------------------------------------------|
G|------------------------------------------|
D|-1---------1---------1---------3-3-3-3----|
A|-1--1-1-1--1--1-1-1--1--1-1-1--3-3-3-3----|
D|-1--1-1-1--1--1-1-1--1--1-1-1--3-3-3-3----|
      X X X     X X X     X X X 
     
E|-------------------------------|
B|-------------------------------|
G|-------------------------------|
D|-1---------1---------1---------| x2
A|-1--1-1-1--1--1-1-1--1---------|
D|-1--1-1-1--1--1-1-1--1---------|
      X X X     X X X

Chorus x2
Solo   x3
Bridge 



 

----------------------------------------------------------------------------
                                   BELATED
---------------------------------------------------------------------------- 
Intro                                                         DISTORTION
E-----------------------------------------------------------------------|
B-----------------------------------------------------------------------|
G--------1---------1----------1---------1-------------------------------|x3
D------2---------2----------2---------2---------------------------------|
A-----------------------------------------------------------------------|
E---0---------2----------4----------2-----------------------------------|

Verse
---------------------------------------------------------------------------|
---------------------------------------------------------------------------|
---------------------------------------------------------------------------|
---2--2-2--2-2-2-2--4--4-4--4-4-4-4---6--6-6--6-6-6-6---4--4-4--4-4-4-4----|
---2--2-2--2-2-2-2--4--4-4--4-4-4-4---6--6-6--6-6-6-6---4--4-4--4-4-4-4----|
---0--0-0--0-0-0-0--2--2-2--2-2-2-2---4--4-4--4-4-4-4---2--2-2--2-2-2-2----|
   X  X X  X X X X  X  X X  X X X X   X  X X  X X X X   X  X X  X X X X

---------------------------------------------------------------------------|
---------------------------------------------------------------------------|
---------------------------------------------------------------------------|
---2--2-2--2-2-2-2--4--4-4--4-4-4-4---6--6-6--6-6-6-6---4--4-4--4-4-4-4----|
---2--2-2--2-2-2-2--4--4-4--4-4-4-4---6--6-6--6-6-6-6---4--4-4--4-4-4-4----|
---0--0-0--0-0-0-0--2--2-2--2-2-2-2---4--4-4--4-4-4-4---2--2-2--2-2-2-2----|
   X  X X  X X X X  X  X X  X X X X   X  X X  X X X X   X  X X  X X X X

---------------------------------------------------------------------------|
---------------------------------------------------------------------------|
---------------------------------------------------------------------------|
---2--2-2--2-2-2-2--4--4-4--4-4-4-4---6--6-6--6-6-6-6---4--4-4--4-4-4-4----|
---2--2-2--2-2-2-2--4--4-4--4-4-4-4---6--6-6--6-6-6-6---4--4-4--4-4-4-4----|
---0--0-0--0-0-0-0--2--2-2--2-2-2-2---4--4-4--4-4-4-4---2--2-2--2-2-2-2----|
      X X  X X X X     X X  X X X X      X X  X X X X      X X  X X X X 
---------------------------------------------------------------------------|
---------------------------------------------------------------------------|
---------------------------------------------------------------------------|
---2--2-2--2-2-2-2--4--4-4--4-4-4-4---6--6-6--6-6-6-6---4>-----------------|
---2--2-2--2-2-2-2--4--4-4--4-4-4-4---6--6-6--6-6-6-6---4>-----------------|
---0--0-0--0-0-0-0--2--2-2--2-2-2-2---4--4-4--4-4-4-4---2>-----------------|
      X X  X X X X     X X  X X X X      X X  X X X X   X 

Chorus part 1
----------------------------------------------------------|
----------------------------------------------------------|
----------------------------------------------------------|
---2-2-2-2-2-2---7-7-7-7-7-7---4-4-4-4-4-4---7-7-7-7-7-7--|x3
---2-2-2-2-2-2---7-7-7-7-7-7---4-4-4-4-4-4---7-7-7-7-7-7--|
---0-0-0-0-0-0---5-5-5-5-5-5---2-2-2-2-2-2---5-5-5-5-5-5--|

Chorus part 2
----------------------------------------------------------|
----------------------------------------------------------|
----------------------------------------------------------|
---2-2-2-2-2-2---7-7-7-7-7-7---4-4-4-4-4-4---7-7-7-7-7-7--|
---2-2-2-2-2-2---7-7-7-7-7-7---4-4-4-4-4-4---7-7-7-7-7-7--|
---0-0-0-0-0-0---5-5-5-5-5-5---2-2-2-2-2-2---5-5-5-5-5-5--|
                                               X X X X X

Intro x2
Verse

Chorus part 1
----------------------------------------------------------|
----------------------------------------------------------|
----------------------------------------------------------|
---2-2-2-2-2-2---7-7-7-7-7-7---4-4-4-4-4-4---7-7-7-7-7-7--|x3
---2-2-2-2-2-2---7-7-7-7-7-7---4-4-4-4-4-4---7-7-7-7-7-7--|
---0-0-0-0-0-0---5-5-5-5-5-5---2-2-2-2-2-2---5-5-5-5-5-5--|

Chorus part 2
----------------------------------------------------------|
----------------------------------------------------------|
----------------------------------------------------------|
---2-2-2-2-2-2---7-7-7-7-7-7---4-4-4-4-4-4---7-7-7-7-7-7--|
---2-2-2-2-2-2---7-7-7-7-7-7---4-4-4-4-4-4---7-7-7-7-7-7--|
---0-0-0-0-0-0---5-5-5-5-5-5---2-2-2-2-2-2---5-5-5-5-5-5--|
                                               X X X X X

                                                               
Breakdown
-------------------------------------------------------------------------|
-------------------------------------------------------------------------|
-------------------------------------------------------------------------|x2
-4-4-4-4-4-4-4-4-4-4---7-7-7-7-7-7-7-7-7-7---2-2-2-2-2-2-2--9-9-9-9-9-9-9|
-4-4-4-4-4-4-4-4-4-4---7-7-7-7-7-7-7-7-7-7---2-2-2-2-2-2-2--9-9-9-9-9-9-9|
-2-2-2-2-2-2-2-2-2-2---5-5-5-5-5-5-5-5-5-5---0-0-0-0-0-0-0--7-7-7-7-7-7-7
                                                              X X X X X X
Intro    x2
Chorus 1 x3
Chorus 2 
Chorus 1 x3
Chorus 2

Outro
----------------------|
----------------------|
----------------------|
---7-7-7--7--7-7--7--2|
---7-7-7--7--7-7--7--2|
---5-5-5--5--5-5--5--0|
   X X X  X  X X  X  X      

----------------------------------------------------------------------------
                                STORY SO FAR
----------------------------------------------------------------------------

*STARTS WITH BASS DRUMS*

Intro 
Guitar 1                                             DISTORTION
e|-------------------------------------------------------------|
B|-------------------------------------------------------------|
G|-555---555---555---555---555---555---555---555---555---555---|
D|-555-3-555-3-555-3-555-3-555-3-555-3-555-3-555-3-555-3-555-3-|
A|-333-3-333-3-333-3-333-3-333-3-333-3-333-3-333-3-333-3-333-3-|
E|-----1-----1-----1-----1-----1-----1-----1-----1-----1-----1-|
 							       
  Guitar 2						       
e|-------------------------------------------------------------|
B|-------------------------------------------------------------|
G|-------------------------------------------------------------|
D|-------------------------------------222-0-222-0-222-0-222-0-|
A|-------------------------------------------------------------|
E|-------------------------------------------------------------|


Chorus x 4
 Guitar 1
    First time only                                 last time only   
e|---------------------|---------------------------|--------------|
B|---------------------|---------------------------|--------------|
G|----------5X55-------|----------------5X55-------|-77777777-5555|
D|-55-77XX--5X55--3XX3-|-77-5-3-5-77XX--5X55--3XX3-|--------------|
A|-55-77XX--3X33--3XX3-|-77-5-3-5-77XX--3X33--3XX3-|-55555555-3333|
E|-33-55XX--------1XX1-|-55-3-1-3-55XX--------1XX1-|--------------|
 	                                                          
 						                  
  Guitar 2						          
e|---------------------|---------------------------|--------------|
B|---------------------|---------------------------|--------------|
G|----------5X55-------|----------------5X55-------|-77777777-5555|
D|-55-77XX--5X55--3XX3-|-77-5-3-5-77XX--5X55--3XX3-|--------------|
A|-55-77XX--3X33--3XX3-|-77-5-3-5-77XX--3X33--3XX3-|-55555555-3333|
E|-33-55XX--------1XX1-|-55-3-1-3-55XX--------1XX1-|--------------|


Verse x2
Guitar 1
e|--------------------------------------------------------|
B|--------------------------------------------------------|
G|-555--------555--------222--------222-------------------|
D|-555-3XXXX3-555-3XXXX3-222-3XXXX3-222-3XXXX3------------|
A|-333-3XXXX3-333-3XXXX3-000-3XXXX3-000-3XXXX3------------|
E|-----1XXXX1-----1XXXX1-----1XXXX1-----1XXXX1------------|
 							  
  Guitar 2						  
e|--------------------------------------------------------|
B|--------------------------------------------------------|
G|-555--------555--------222--------222-------------------|
D|-555-333333-555-333333-222-333333-222-333333------------|
A|-333-333333-333-333333-000-333333-000-333333------------|
E|-----111111-----111111-----111111-----111111------------|

Fill
e|--------------------------------------|
B|--------------------------------------|
G|-555---555---555---555---555---555----|
D|-555-3-555-3-555-3-555-3-555-3-555-3--|
A|-333-3-333-3-333-3-333-3-333-3-333-3--|
E|-----1-----1-----1-----1-----1-----1--|

Chorus x4
Verse  x2



Bridge Part 1 x2
Guitar 1		
e|---------------------------------------------------------|
B|------88-66-5-------5-------------88-66-5-------5--------|
G|----5---------7-5-7---7-5-7-----5---------7-5-7---7-5-7--|
D|-55--------------------------55--------------------------|
A|---------------------------------------------------------|
E|---------------------------------------------------------|
                                                          
  							   
  Guitar 2						   
e|---------------------------------------------------------|
B|---------------------------------------------------------|
G|-555----------555----------222----------222--------------|
D|-555--3XXXX3--555--3XXXX3--222--3XXXX3--222--3XXXX3------|
A|-333--3XXXX3--333--3XXXX3--000--3XXXX3--000--3XXXX3------|
E|------1XXXX1-------1XXXX1-------1XXXX1-------1XXXX1------|
   

Post Bridge
Guitar 1	
e|--------------------------------------------------------|
B|--------------------------------------------------------|
G|--------------------------------------------------------|
D|-3-------5-------7-------5------------------------------|
A|-3-------5-------7-------5------------------------------|
E|-1-------3-------5-------3------------------------------|
 		           				  
  Guitar 2						  
e|--------------------------------------------------------|
B|--------------------------------------------------------|
G|--------------------------------------------------------|
D|-333333--555555--777777--555555-------------------------|
A|-333333--555555--777777--555555-------------------------|
E|-111111--333333--555555--333333-------------------------|


Bridge Part 2
Guitar 1 (Guitar 2 plays Post Bridge)
e|------------------------------------------------------------|
B|------------------------------------------------------------|
G|-------12--------------------12-12--------12-12-------------|
D|-12-10----10---10-10-9-9-10---------12-10-------14-14-12-12-|
A|------------------------------------------------------------|
E|------------------------------------------------------------|
                                                             
e|------------------------------------------------------------|
B|------------------------------------------------------------|
G|------------------------12-12----------------------12-------|
D|-10-10----10-10-10-9-10-------14-14-12-10----12-10----10----|
A|------------------------------------------------------------|
E|------------------------------------------------------------|
 
e|------------------------------------------------------------|
B|------------------------------------------------------------|
G|------------------------------------------------------------|
D|-9-10-9-10-12-10--------------------------------------------|
A|------------------------------------------------------------|
E|------------------------------------------------------------|

Chorus   x4
Verse    x2
Bridge 1 x2

Outro
e|-------|
B|-------|
G|-555---|
D|-555-3-|
A|-333-3-|
E|-----1-|

----------------------------------------------------------------------------
                              ANNIVERSARY 
----------------------------------------------------------------------------  

INTRO                   HEAVY DISTORTION
e|--------------------------------------|
B|--------------------------------------|
G|-3-3--4-4-4--4-4-4---------6-6-6------|
D|-3-3--4-4-4--4-4-4--4-4-4--6-6-6------|x3 
A|-1-1--2-2-2--2-2-2--4-4-4--4-4-4------|
E|--------------------2-2-2-------------|
        X X    X X 

e|------------------------------|
B|------------------------------|
G|-3-3--4-4-4--4-4-4------------|
D|-3-3--4-4-4--4-4-4--4---------|
A|-1-1--2-2-2--2-2-2--4---------|
E|--------------------2---------|
        X X    X X 

VERSE           CLEAN
e|---------------------|
B|---------------------|
G|-----------4>--------|
D|-4>--------4>--------| x12 (i think)
A|-4>--------2>--------|
E|-2>------------------|

Pre Chorus                  DISTORTION (not as heavy as the intro)
e|--------------------------------------| 
B|--------------------------------------|
G|------10---11------------10--11--13---|
D|---9---x----x---9---11----x---x---x---|
A|---x---8----9---x----x----8---9--11---|
E|---7------------7----9----------------|

Chorus
e|-------------------------------------------------|
B|-------------------------------------------------|
G|------6666--333--4444-------666--333--444-444----|
D|-444--6666--333--4444--444--666--333--444-444----|X2
A|-444--4444--111--2222--444--444--111--222-222----|
E|-222-------------------222-----------------------|
                                        XX  XX       

Verse      x6 (i think. its half of what you played before)
Pre Chorus
Chorus     x4

Bridge:                                              
e|-----------------------------------------|----------| |---------|
B|-----------------------------------------|----------| |---------|
G|-----------------------------------------|4-4-4-4---| |4-4-6-6--|
D|-4-4--4-4--4-4--4-4--8-8--8-8--8-8--8-8--|4-4-4-4 x3| |4-4-6-6--|
A|-4-4--4-4--4-4--4-4--8-8--8-8--8-8--8-8--|2-2-2-2---| |2-2-4-4--|
E|-2-2--2-2--2-2--2-2--6-6--6-6--6-6--6-6--|----------| |---------|

e|-----------------------------------------|----------| |---------|
B|-----------------------------------------|----------| |---------|
G|-----------------------------------------|4-4-4-4---| |-2-2-2---|
D|-4-4--4-4--4-4--4-4--8-8--8-8--8-8--8-8--|4-4-4-4 x3| |-2-2-2 x4|
A|-4-4--4-4--4-4--4-4--8-8--8-8--8-8--8-8--|2-2-2-2---| |-0-0-0---|
E|-2-2--2-2--2-2--2-2--6-6--6-6--6-6--6-6--|----------| |---------|

Verse     x1
Pre Chorus
Chorus    x4

Outro
e|---------------------|
B|---------------------|
G|---------------------|
D|-4-4--4-4--4-4--4-4--| 
A|-4-4--4-4--4-4--4-4--|
E|-2-2--2-2--2-2--2-2--|



THANK YOU SOOO MUCH FOR READING ALL THIS. This took me AGES!! now obviously i
think its mostly right, and ive played my tabs with the song and sounds mostly
correct. now im sure that there r some small things in there wrong. so if i
forgot to put "CLEAN" or something im sure you can forgive me. LOOK AT THE SIZE
OF THIS THING! anyway thank you very much. post comment/corrections or email me.
thank you
Related for Sticks And Stones tab