Song name
# A B C D E F G H I J K L M N O P Q R S T U V W X Y Z

New Found Glory - Situations tab

-------------------------------------------------------------------------------
			     SITUATIONS - New Found Glory
-------------------------------------------------------------------------------

This song is an unreleased b-side, which was made available for download on
It\\\'s a catchy song, and proof that accomplished songwriting doesn\\\'t always mean 30 different
and a 3 minute guitar solo.

Tabbed by: Gareth
Email: blanco_miaow@tiscali.co.uk

Tuning: DADGBE

Arranged for one guitar

Intro:

e|---------------------------------------------------------------------------|
B|---------------------------------------------------------------------------|
G|---------------------------------------------------------------------------|
D|--------------0 h 2------2 h 4-------5 p 4--------2 p 0--------------------|
A|---------------------------------------------------------------------------|
D|--(0)+--0PM-----------0PM--------0PM----------0PM--------00000PM-----------|

e|---------------------------------------------------------------------------|
B|---------------------------------------------------------------------------|
G|---------------------------------------------------------------------------|
D|-----------0 h 2----------2 h 4-----------5 p 4----------2 p 0-------------|
A|---------------------------------------------------------------------------|
D|-----0PM-----------0PM------------0PM--------------0PM-----------00000PM---|

e|---------------------------------------------------------------------------|
B|---------------------------------------------------------------------------|
G|---------------------------------------------------------------------------|
D|---------0 h 2-----------2 h 4-----------5 p 4----------2 p 0--------------|
A|---------------------------------------------------------------------------|
D|---5PM------------5PM--------------5PM------------5PM-----------55555PM----|
                                                                 1~~~~~~~~~~
e|---------------------------------------------------------------------------|
B|---------------------------------------------------------------------------|
G|---------------------------------------------------------------------------|
D|---------0 h 2-----------2 h 4-----------5 p 4----------2 p 0--------------|
A|---------------------------------------------------------------------------|
D|---5PM------------5PM--------------5PM------------5PM-----------55555PM----|
Repeat x 2
  2~~~~~~~~~~~~~~~~
e|-------------------------------------------------------------------------------------|
B|-------------------------------------------------------------------------------------|
G|-------------------------------------------------------------------------------------|
D|---------7-(7)\\\\4\\\\0-------------------------------------------------------------|
A|---------7-(7)\\\\4\\\\0-------------------------------------------------------------|
D|-55555PM-7-(7)\\\\4\\\\0-------------------------------------------------------------|

Verse:

   \\\"I wanna feel the sand beneath my feet...\\\"
e|-------------------------------------------------------------------------------------|
B|-------------------------------------------------------------------------------------|
G|-------------------------------------------------------------------------------------|
D|-------------------------------------------------------------------------------------|
A|-5555555555555555555555555-7\\\\4-55555555555555555-7\\\\4-55555555555555555555------|
D|-0000000000000000000000000-7\\\\4-55555555555555555-7\\\\4-00000000000000000000------|

e|----------------------------------------------------------------------------------|
B|----------------------------------------------------------------------------------|
G|----------------------------------------------------------------------------------|
D|----------------------------------------------------------------------------------|
A|-555555555-7\\\\4-55555555555555555555-7X7X7X7X-----------------------------------|
D|-000000000-7\\\\4-55555555555555555555-7X7X7X7X-----------------------------------|

Chorus:

  \\\"Obviously we\\\'re too destructive.....\\\"
e|-----------------------------------------------------------------------------|
B|------(88888)-------(88888)--------------------------------------------------|
G|-77777(77777)-77777-(77777)--------------------------------------------------|
D|-77777-55555--77777--55555---------------------------------------------------|
A|-55555-55555--55555--55555--22222--55555--22222--5X55X5----------------------|
D|-00000-55555--00000--55555--22222--55555--22222--5X55X5----------------------|

Interlude (2:05)

   \\\"Bah ba ba bah ba ba ba bah.......\\\"
e|-------------------------------------------------------------------------------------|
B|-------------------------------------------------------------------------------------|
G|-------------------------------------------------------------------------------------|
D|-------------------------0-----(0)-------------7\\\\4\\\\0-X-------------------------|
A|-(0)-----x(pick slide)---0-----(0)-------55555-7\\\\4\\\\0-X-------------------------|
D|-(0)---------------------0-----(0)-------55555-7\\\\4\\\\0-X-------------------------|

That\\\'s all the rhythmic figures in the song - should be enough for you to figure out
bits that I haven\\\'t transcribed - other than the interlude, all parts on the song follow
format of the intro, verse or chorus. The only part I haven\\\'t transcribed yet is a 
picked appregio over the verse, THE \\\'noodling\\\' over the interlude, and any octaves
plays over the chord changes in the chorus. If you want to have a go at the clean 
and the Interlude, I\\\'m fairly certain of that the basic notes used are the open versions of 
chords played by the rhythm guitar (D & Gmaj).

Any suggestions or corrections, drop me a line......

| /  slide up
| \\\\  slide down
| h  hammer-on
| p  pull-off
| ~  vibrato
| +  harmonic
| x  Mute note
===============================================================================
Tap to rate this tab
 
# A B C D E F G H I J K L M N O P Q R S T U V W X Y Z