Song name
# A B C D E F G H I J K L M N O P Q R S T U V W X Y Z

New Found Glory - Vegas tab

Band: New Found Glory
Song: Vegas
Album: New Found Glory

intro
guitar 1
E------------------------------------------------------------------|
B------------------------------------------------------------------|
G--------------------6-2-4-------------------6-2-4-----------------|
D---6/7----6/7---6/7-6-2-4---6/7---6/7---6/7-6-2-4-----------------|
A---6/7----6/7---6/7-4-0-2---6/7---6/7---6/7-4-0-2-----------------|
E-0-4/5--0-4/5-0-4/5-------0-4/5-0-4/5-0-4/5-----------------------|

guitar 2
E--------------------------------------------s---------------------|
B--------------------------------------------l---------------------|
G--------------------------------------------i---------------------|
D--------------------------22----------------d---------------------|
A--------------------------22----------------e---------------------|
E--------------------------00--------------------------------------|

these two guitars are on the same beat. for example, the second guitar slides when the 
guitar plays the 664.

pre-verse
both guitars
E------------------------------------------------------------------|
B------------------------------------------------------------------|
G-------------------6-2-4-------------------6-2-4------------------|
D-2-6/7-2-6/7-2-6/7-6-2-4-2-6/7-2-6/7-2-6/7-6-2-4------------------|
A-2-6/7-2-6/7-2-6/7-4-0-2-2-6/7-2-6/7-2-6/7-4-0-2------------------|
E-0-4/5-0-4/5-0-4/5-------0-4/5-0-4/5-0-4/5------------------------|

verse
both guitars
E------------------------------------------------------------------|
B------------------------------------------------------------------|
G----------------------66-2-4-----------------------66-2-4---------|
D-22-----22-----22-----66-2-4-22-----22-----22------66-2-4---------|
A-22-----22-----22-----44-0-2-22-----22-----22------44-0-2---------|
E-00-----00-----00------------00-----00-----00---------------------|

E------------------------------------------------------------------|
B------------------------------------------------------------------|
G-------------------6-2-4-------------------6-2-4------------------|
D-2-6/7-2-6/7-2-6/7-6-2-4-2-6/7-2-6/7-2-6/7-6-2-4------------------|
A-2-6/7-2-6/7-2-6/7-4-0-2-2-6/7-2-6/7-2-6/7-4-0-2------------------|
E-0-4/5-0-4/5-0-4/5-------0-4/5-0-4/5-0-4/5------------------------|

E------------------------------------------------------------------|
B------------------------------------------------------------------|
G----------------------66-2-4-----------------------66-2-4---------|
D-22-----22-----22-----66-2-4-22-----22-----22------66-2-4---------|
A-22-----22-----22-----44-0-2-22-----22-----22------44-0-2---------|
E-00-----00-----00------------00-----00-----00---------------------|

verse
guitar 1
E------------------------------------------------------------------|
B------------------------------------------------------------------|
G----------------------66-2-4-----------------------66-2-4---------|
D-22-----22-----22-----66-2-4-22-----22-----22------66-2-4---------|
A-22-----22-----22-----44-0-2-22-----22-----22------44-0-2---------|
E-00-----00-----00------------00-----00-----00---------------------|

guitar 2
E------------------------------------------------------------------|
B------------------------------------------------------------------|
G---99-99--99-99--99-99---------99-99--99-99--99-99----------------|
D------------------------------------------------------------------|
A---77-77--77-77--77-77---------77-77--77-77--77-77----------------|
E------------------------------------------------------------------|

chorus
both guitars                                                       X3
E------------------------------------------------------------------|
B------------------------------------------------------------------|
G------------------------------------------------------------------|
D-2-2-7-6-6-7-4-6-7-7-6--------------------------------------------|
A-2-2-7-6-6-7-4-6-7-7-6--------------------------------------------|
E-0-0-5-4-4-5-2-4-5-5-4--------------------------------------------|

E------------------------------------------------------------------|
B------------------------------------------------------------------|
G------------------------------------------------------------------|
D-2-2-7-6-6-7-4-6-7-7-6-2-2-22-------------------------------------|
A-2-2-7-6-6-7-4-6-7-7-6-2-2-22-------------------------------------|
E-0-0-5-4-4-5-2-4-5-5-4-0-0-00-------------------------------------|

pre-verse
both guitars
E------------------------------------------------------------------|
B------------------------------------------------------------------|
G-------------------6-2-4-------------------6-2-4------------------|
D-2-6/7-2-6/7-2-6/7-6-2-4-2-6/7-2-6/7-2-6/7-6-2-4------------------|
A-2-6/7-2-6/7-2-6/7-4-0-2-2-6/7-2-6/7-2-6/7-4-0-2------------------|
E-0-4/5-0-4/5-0-4/5-------0-4/5-0-4/5-0-4/5------------------------|

verse
both guitars
E------------------------------------------------------------------|
B------------------------------------------------------------------|
G----------------------66-2-4-----------------------66-2-4---------|
D-22-----22-----22-----66-2-4-22-----22-----22------66-2-4---------|
A-22-----22-----22-----44-0-2-22-----22-----22------44-0-2---------|
E-00-----00-----00------------00-----00-----00---------------------|

verse
guitar 1
E------------------------------------------------------------------|
B------------------------------------------------------------------|
G----------------------66-2-4-----------------------66-2-4---------|
D-22-----22-----22-----66-2-4-22-----22-----22------66-2-4---------|
A-22-----22-----22-----44-0-2-22-----22-----22------44-0-2---------|
E-00-----00-----00------------00-----00-----00---------------------|

guitar 2
E------------------------------------------------------------------|
B------------------------------------------------------------------|
G---99-99--99-99--99-99---------99-99--99-99--99-99----------------|
D------------------------------------------------------------------|
A---77-77--77-77--77-77---------77-77--77-77--77-77----------------|
E------------------------------------------------------------------|

chorus
both guitars                                                       X3
E------------------------------------------------------------------|
B------------------------------------------------------------------|
G------------------------------------------------------------------|
D-2-2-7-6-6-7-4-6-7-7-6--------------------------------------------|
A-2-2-7-6-6-7-4-6-7-7-6--------------------------------------------|
E-0-0-5-4-4-5-2-4-5-5-4--------------------------------------------|

E------------------------------------------------------------------|
B------------------------------------------------------------------|
G------------------------------------------------------------------|
D-2-2-7-6-6-7-4-6-7-7-6-2-2-22-------------------------------------|
A-2-2-7-6-6-7-4-6-7-7-6-2-2-22-------------------------------------|
E-0-0-5-4-4-5-2-4-5-5-4-0-0-00-------------------------------------|

pre-verse
both guitars
E------------------------------------------------------------------|
B------------------------------------------------------------------|
G-------------------6-2-4-------------------6-2-4------------------|
D-2-6/7-2-6/7-2-6/7-6-2-4-2-6/7-2-6/7-2-6/7-6-2-4------------------|
A-2-6/7-2-6/7-2-6/7-4-0-2-2-6/7-2-6/7-2-6/7-4-0-2------------------|
E-0-4/5-0-4/5-0-4/5-------0-4/5-0-4/5-0-4/5------------------------|

break
both guitars                                                       x2
E------------------------------------------------------------------|
B------------------------------------------------------------------|
G----feedback----feedback----feedback------------------------------|
D-22----------22----------22---------------------------------------|
A-22----------22----------22---------------------------------------|
E-00----------00----------00---------------------------------------|

E------------------------------------------------------------------|
B------------------------------------------------------------------|
G------------------------------------------------------------------|
D-2-2-2------------------------------------------------------------|
A-2-2-2------------------------------------------------------------|
E-0-0-0------------------------------------------------------------|
   p.m

outro
both guitars                                                       X3
E------------------------------------------------------------------|
B------------------------------------------------------------------|
G------------------------------------------------------------------|
D-2-2-7-6-6-7-4-6-7-7-6--------------------------------------------|
A-2-2-7-6-6-7-4-6-7-7-6--------------------------------------------|
E-0-0-5-4-4-5-2-4-5-5-4--------------------------------------------|

E------------------------------------------------------------------|
B------------------------------------------------------------------|
G------------------------------------------------------------------|
D-2-2-7-6-6-7-4-6-7-7-6-2-2-22/------------------------------------|
A-2-2-7-6-6-7-4-6-7-7-6-2-2-22/------------------------------------|
E-0-0-5-4-4-5-2-4-5-5-4-0-0-00/------------------------------------|
Tap to rate this tab
# A B C D E F G H I J K L M N O P Q R S T U V W X Y Z