Song name
# A B C D E F G H I J K L M N O P Q R S T U V W X Y Z

New Found Glory - Iris tab

This is the first tab that i have submitted but im sure that is right. The time 
changes a fair bit so make sure to watch out for that.

Enjoy!

Tuning: D A D G B e

Intro

  6/8                     2/8     6/8                    2/8
|-----------------------|------|-----------------------|-----|
|-----------------------|------|-3-3-3-3-3-3-3-3-3-3-3-|-3-3-|
|-----------------------|------|-0-0-0-0-0-0-0-0-0-2-2-|-2-2-|
|-9-9-9-9-9-9-7-7-7-9-9-|-9-9\-|-0-0-0-0-0-0-0-0-0-0-0-|-0-0-|
|-9-9-9-9-9-9-7-7-7-9-9-|-9-9\-|-------------------0-0-|-0-0-|
|-9-9-9-9-9-9-7-7-7-9-9-|-9-9\-|-5-5-5-5-5-5-4-4-4-----|-----|

 6/8                     2/8     6/8                    2/8
|-----------------------|------|-----------------------|---|
|-----------------------|------|-3-3-3-3-3-3-3-3-3-3-3-|-3-|
|-----------------------|------|-0-0-0-0-0-0-0-0-2-2-2-|-2-|
|-9-9-9-9-9-9-7-7-7-9-9-|-9-9\-|-0-0-0-0-0-0-0-0-0-0-0-|-0-|
|-9-9-9-9-9-9-7-7-7-9-9-|-9-9\-|-----------------0-0-0-|-0-|
|-9-9-9-9-9-9-7-7-7-9-9-|-9-9\-|-5-5-5-5-5-5-4-4-------|---|

Verse [0:11]


 6/8
|-----------------------|-----------------------|-----------------------|
|-----------------------|-----------------------|-----------------------|
|-7--7-7-7-7-7--7-7-7-7-|-7--7-7-7-7-7--7-7-7-7-|-7--7-7-7-7-7--7-7-7-7-|
|-----------------------|-----------------------|-----------------------|
|-5--5-5-5-5-5--5-5-5-5-|-5--5-5-5-5-5--5-5-5-5-|-5--5-5-5-5-5--5-5-5-5-|
|-----------------------|-----------------------|-----------------------|

|-----------------------|
|-----------------------|
|-7--7-7-7-7-7--7-7-7-7-|   x3
|-----------------------|
|-5--5-5-5-5-5--5-5-5-5-|
|-----------------------|


|-----------------------|-----------------------|-----------------------|
|-----------------------|-----------------------|-----------------------|
|-7--7-7-7-7-7--7-7-7-7-|-7--7-7-7-7-7--7-7-7-7-|-------------------9---|
|-----------------------|-----------------------|-12----12--11------7---|
|-5--5-5-5-5-5--5-5-5-5-|-5--5-5-5-5-5--5-5-5-5-|-9-9-9-9---7-7-7-7-7---|
|-----------------------|-----------------------|-9-9-9-9---7-7-7-7-7---|

|------------------------|
|------------------------|
|------------7-7-7-7-7-7-|
|-5-5-5-5-5--5-5-5-5-5-5-|
|-5-5-5-5-5--5-5-5-5-5-5-|
|-5-5-5-5-5--5-5-5-5-5-5-|

Chorus [0:44]

6/8
|-----------------------------------|-------------------------|
|-----------------------------------|-------------------------|
|-----------------------------------|-------------------------|
|-12---12-12-12-12-11---11-11-11-11-|-9---9-9-9-9-9---9-9-9-9-|  x 4
|-9----9--9--9--9--7----7--7--7--7--|-5---5-5-5-5-5---5-5-5-5-|
|-9----9--9--9--9--7----7--7--7--7--|-5---5-5-5-5-5---5-5-5-5-|

*Play intro after chorus*

*Repeat verse but instead of playing it 3 times only play once*


Bridge [1:45]

6/8                          2/8     6/8
|--------------------------|-------|---------------------------|
|--------------------------|-------|---------------------------|
|--------------------------|-------|-12--12-12--12-11---11--11-|
|-12-12-12-12--11-11-11-11-|-11-12-|---------------------------|
|--------------------------|-------|---------------------------|
|--------------------------|-------|---------------------------|


2/8          6/8                         2/8
|----------|---------------------------|-------|
|----------|---------------------------|-------|
|-12-11----|---------------------------|----11-|
|-------12-|-14-14-14-14---14-14-14-14-|-14----|
|----------|---------------------------|-------|
|----------|---------------------------|-------|


6/8                          2/8        6/8
|---------------------------|----------|---------------------------|
|---------------------------|----------|---------------------------|
|-12--12-12--12-11---11--11-|-12-11----|---------------------------|
|---------------------------|-------12-|-14-14-14-14---14-14-14-14-|
|---------------------------|----------|---------------------------|
|---------------------------|----------|---------------------------|

2/8
|----------|
|----------|
|-14-16----|
|----------|
|----------|
|----------|

Solo [1:58]

 2/8        4/4
|----------|----------|-----|----------|----------|-----------|----------|
|----------|----------|-----|----------|----------|-----------|----------|
|----------|----------|-----|----------|----------|-----------|----------|
|-7/12-----|-12-------|-----|-11-------|--------7/|12---------|----14\---|
|----------|----------|-----|----------|----------|-----------|-------\--|
|----------|----------|-----|----------|----------|-----------|--------\-|

|----------|----------|--------|----------|--------|----------|----------|
|----------|----------|--------|----------|--------|----------|----------|
|----------|----------|--------|----------|--------|----------|----------|
|-/16------|-[16]\---/|12------|-[12]/16\-|11------|-[11]\7/--|9---------|
|----------|------\7/-|--------|----------|--------|----------|----------|
|----------|----------|--------|----------|--------|----------|----------|

                                6/8
|---------|--------|----------|----------|----------|----------|----------|
|---------|--------|----------|-3--------|----------|----------|----------|
|---------|--------|----------|-2--------|----------|----------|----------|
|-----grad|--------|----------|-0--------|----------|----------|----------|
|--[9]/---|-21-----|-[21]\----|-0--------|----------|----------|----------|
|---------|--------|----------|-0--------|----------|----------|----------|

Outro Chorus [2:30]

6/8
|-----------------------------------|-------------------------|
|-----------------------------------|-------------------------|
|-----------------------------------|-------------------------|
|-12---12-12-12-12-11---11-11-11-11-|-9---9-9-9-9-9---9-9-9-9-|  x 4
|-9----9--9--9--9--7----7--7--7--7--|-5---5-5-5-5-5---5-5-5-5-|
|-9----9--9--9--9--7----7--7--7--7--|-5---5-5-5-5-5---5-5-5-5-|


|-----------------------------------|---------------------|
|-----------------------------------|---------------------|
|-----------------------------------|---------------------| x 3
|-12---12-12-12-12-11---11-11-11-11-|-------9-----9-----9-|
|-9----9--9--9--9--7----7--7--7--7--|-5-5-5-5-5-5-5-5-5-5-|
|-9----9--9--9--9--7----7--7--7--7--|-5-5-5-5-5-5-5-5-5-5-|


|------------|-------|
|------------|-------|
|------------|-7-----|
|-12----11---|-7-----|
|-9-----7----|-5-----|
|-9-----7----|-5-----|
Tap to rate this tab
# A B C D E F G H I J K L M N O P Q R S T U V W X Y Z