Song name
# A B C D E F G H I J K L M N O P Q R S T U V W X Y Z

New Found Glory - Who Am I tab

-------------------------------------------------------------------------------
			     Who Am I - New Found Glory
-------------------------------------------------------------------------------
Tabbed by: bloodred16
Email: happytreefriends_firstblood@hotmail.com

Tuning: Standard (EADGBe)

Well after much sweat blood and tears here is Who Am I by New Found Glory, I'm
pretty much certain its all here, so see what you think! I've even done the solo
It's an awesome song so enjoy:D

Intro
Riff A (Gtr.1)
e|---------------------------------------------------------------------------|
B|------1-----------1-----------1-----------1--------------------------------|
G|---0-----0-----0-----0-----0-----0-----0-----0-----------------------------|
D|------------------------------------------------------3-----------3-----3--|
A|3-----------2-----------0--------------------------3-----3-----3-----3--3--|
E|------------------------------------3-----------1-----------1-----------1--|
 
Riff B (Gtr.1)                                                                         
e|---------------------------------------------------------------------------|
B|---------------------------------------------------------------------------|
G|17--17171717--17--17171717--17--1717-------5555-55-5-----------------------|
D|-x---x-x-x-x---x---x-x-x-x---x---x-x-------xxxx-xx-x-----------------------|
A|15--15151515--15--15151515--15--1515-(x6)--3333-33-3-----------------------|
E|---------------------------------------------------------------------------|

Riff B1 (Gtr.2){played along with Riff B}
e|---------------------------------------------------------------------------|
B|---------------------------------------------------------------------------|
G|17--17171717--17--17171717--17--1414--14--14141414--12--12121212--12--1212-|
D|-x---x-x-x-x---x---x-x-x-x---x---x-x---x---x-x-x-x---x---x-x-x-x---x---x-x-|
A|15--15151515--15--15151515--15--1212--12--12121212--10--10101010--10--1010-|
E|---------------------------------------------------------------------------|

e|---------------------------------------------------------------------------|
B|---------------------------------------------------------------------------|
G|17--17171717--17--17171717--17---99--9--9999--10--10101010--10--1010-------|
D|-x---x-x-x-x---x---x-x-x-x---x---xx--x--xxxx---x---x-x-x-x---x---x-x-------|
A|15--15151515--15--15151515--15---77--7--7777---8---8-8-8-8---8---8-8-------|
E|---------------------------------------------------------------------------|
then repeat this but on the repeat only play one "10"
                                                   x
                                                   8

Verse
Rhy. Fig. 1 (x4)(Gtr.2)
e|---------------------------------------------------------------------------|
B|---------------------------------------------------------------------------|
G|5--5555--5--5555--5--------------------------------5--5555--5--5555--5-----|
D|5--5555--5--5555--5--77--7--77--7--5--5555--5--55--5--5555--5--5555--5-----|
A|3--3333--3--3333--3--77--7--77--7--5--5555--5--55--3--3333--3--3333--3--33-|
E|---------------------55--5--55--5--3--3333--3--33-----------------------00-|

e|---------------------------------------------------------------------------|
B|---------------------------------------------------------------------------|
G|---------------------------------------------------------------------------|
D|---------------------------------------------------------------------------|
A|-3--33--3--3--3333--3--33--------------------------------------------------|
E|-0--00--0--1--1111--1--11--------------------------------------------------|

Chorus
(Gtr.2)
e|---------------------------------------------------------------------------|
B|---------------------------------------------------------------------------|
G|-----------------------------5---------------------------------------------|
D|5--5--5--5--5---5--5--5--5---5---------------------------------------------|
A|5--5--5--5--5---5--5--5--5---3---------------------------------------------|
E|3--3--3--3--3---3--3--3--3-------------------------------------------------|
                               |---------------------------------------------
(Gtr.1)
e|---------------------------------------------------------------------------|
B|------1-----------1-----------1-----------1--------------------------------|
G|---0-----0-----0-----0-----0-----0-----0-----0-----------------------------|
D|------------------------------------------------------3-----------3--------|
A|3-----------2-----------0--------------------------3-----3-----3-----3-----|
E|------------------------------------3-----------1-----------1--------------|

e|---------------------------------------------------------------------------|
B|---------------------------------------------------------------------------|
G|---------------------------------------------------------------------------|
D|------3-----------3--------------------------------------------------------|
A|---3-----3-----3-----3-----------------------------------------------------|
E|1-----------1--------------------------------------------------------------|

Then Gtr.1 plays Riff A

Interlude - Gtr.1 & 2: Riffs B & B1
Verse - Rhy. Fig. 1 (x4)(Gtr.2)
Chorus


Rhy. Fig. 2 (Gtr.2)                               End Rhy. Fig. 2
e|---------------------------------------------------------------------------|
B|---------------------------------------------------------------------------|
G|5-5-5-5---------2-2-2-2----------------------------------------------------|
D|5-5-5-5-5-5-5-5-2-2-2-2-5-5-5---3-3-3-3-3-3-3-3-3-3-3-3-3-3-3--------------|
A|3-3-3-3-2-2-2-2-0-0-0-0-5-5-5-0-3-3-3-3-3-3-3-3-3-3-3-3-3-3-3-0------------|
E|------------------------3-3-3-0-1-1-1-1-1-1-1-1-1-1-1-1-1-1-1-0------------|


e|---------------------------------------------------------------------------|
B|---------------------------------------------------------------------------|
G|5-5-5-5---------2-2-2-2----------------------------------------------------|
D|5-5-5-5-5-5-5-5-2-2-2-2-5-5-5---3-3-3-3-3-3-3-3-3-3-3-3-3-3-3-3------------|
A|3-3-3-3-2-2-2-2-0-0-0-0-5-5-5-0-3-3-3-3-3-3-3-3-3-3-3-3-3-3-3-3------------|
E|------------------------3-3-3-0-1-1-1-1-1-1-1-1-1-1-1-1-1-1-1-1------------|

Bridge
(Gtr.2)
e|---------------------------------------------------------------------------|
B|---------------------------------------------------------------------------|
G|---------------------------------------------------------------------------|
D|---------------------------------------------------------------------------|
A|3------------------------------3-3-3-3-3-3-3-3-3-3-3-3-3-3-3-3-------------|
E|0------------------------------1-1-1-1-1-1-1-1-1-1-1-1-1-1-1-1-------------|
  |----------------------------- PM--------------|

e|---------------------------------------------------------------------------|
B|---------------------------------------------------------------------------|
G|---------------------------------------------------------------------------|
D|---------------------------------------------------------------------------|
A|3------------------------------3-3-3-3-3-3-3-3-3-3-3-3-3-3-3---------------|
E|0------------------------------1-1-1-1-1-1-1-1-1-1-1-1-1-1-1-0-------------|
  |----------------------------- PM------------|

e|---------------------------------------------------------------------------|
B|---------------------------------------------------------------------------|
G|2--------------------------------------------------------------------------|
D|2--------------------------------------------------------------------------|
A|0------------------------------3-3-3-3-3-3-3-3-3-3-3-3-3-3-3---------------|
E|-------------------------------1-1-1-1-1-1-1-1-1-1-1-1-1-1-1-0-------------|
  |----------------------------- PM--------------|

e|---------------------------------------------------------------------------|
B|---------------------------------------------------------------------------|
G|2--------------------------------------------------------------------------|
D|2------------------------------5-------------------------------------------|
A|0------------------------------5-------------------------------------------|
E|-------------------------------3**-----------------------------------------|
  |-----------------------------

(Gtr.1)**plays this bit when Gtr.2 plays this chord
e|---------------------------------------------------------------------------|
B|---------------------------------------------------------------------------|
G|----------------4-4-4-4-7-7-7-7--------------------------------------------|
D|5-5-5-5-7-7-7-7-x-x-x-x-x-x-x-x--------------------------------------------|
A|x-x-x-x-x-x-x-x-2-2-2-2-5-5-5-5--------------------------------------------|
E|3-3-3-3-5-5-5-5------------------------------------------------------------|

Chorus - Rhy. Fig. 2 (x2)(Gtr.2)
(Gtr.1) - at end of last chorus second time around
e|---------------------------------------------------------------------------|
B|---------------------------------------------------------------------------|
G|9h10p9---------------------------------------------------------------------|
D|-------12p10---------------------------------------------------------------|
A|---------------------------------------------------------------------------|
E|---------------------------------------------------------------------------|

Outro-Guitar Solo - (Gtr.1)
Rhy. Fig. 3 (x2 1/4)(Gtr.2) - played with the solo
e|---------------------------------------------------------------------------|
B|---------------------------------------------------------------------------|
G|----12-12-10p9-------12-----10p9-----------------9-------------------------|
D|10--------------9---------9------12\10------10------10-1010-10-12-10-9-----|
A|----------------------------------------8----------------------------------|
E|---------------------------------------------------------------------------|
                  +                                      PM----------|

e|---------------------------------------------------------------------------|
B|---------------------------------------------------------------------------|
G|10p9-------------12-12-10p9-------12----12/14-12-10---9--------------------|
D|-----10h12---10---------------9---------------------------12---10---10-----|
A|---------------------------------------------------------------------------|
E|---------------------------------------------------------------------------|
  +
                                                   ***
e|--12-----------------------------------------------------------------------|
B|-----13----15-12-13-----------------------------------------------------10-|
G|--------12----------12---------------------------10--9-------------------x-|
D|x-------------------------------------------------------12--10--12--10---7-|
A|---------------------------------------------------------------------------|
E|---------------------------------------------------------------------------|
                      |---------------------------          

***(Gtr.2) ends with this
e|---------------------------------------------------------------------------|
B|---------------------------------------------------------------------------|
G|2--2--2--------------------------------------------------------------------|
D|2--2--2--5--5-----3--------------------------------------------------------|
A|0--0--0--5--5--5--3--------------------------------------------------------|
E|---------3--3--0--1--------------------------------------------------------|
                    |---------------------

| /  slide up
| \  slide down
| h  hammer-on
| p  pull-off
| +  harmonic
| x  Mute note
| PM Palm Mute
| |-- Hold note/chord
| **/*** refer to where the other "**/***" is
===============================================================================
Tap to rate this tab
# A B C D E F G H I J K L M N O P Q R S T U V W X Y Z