Guitaretab - guitar tabs
Song name
# A B C D E F G H I J K L M N O P Q R S T U V W X Y Z

New Found Glory - Baby One More Time tab

Song: Baby One More Time
Artist: New Found Glory
Ear Tabber: Elvin Hayes Gentiles

Intro:
e|-----------------------------|
B|-----------------------------|
G|--4-----7--9999999999999999--|
D|--4--4--7--9999999999999999--| 3x
A|--2--4--5--7777777777777777--|
E|-----2-----------------------|
    .  .  .  ................

Verse:
e|-----------------------------------------------|
B|-----------------------------------------------|
G|--44444444------------77777777-----------------|
D|--44444444--44444444--77777777--222222-444444--| 3x
A|--22222222--44444444--55555555--222222-444444--|
E|------------22222222------------000000-222222--|
    ........  ........  ........  ...... ......

Chorus:
e|------------------------------------------|
B|------------------------------------------|
G|--44444444------------77777777------------|
D|--44444444--44444444--77777777--22222222--| 2x
A|--22222222--44444444--55555555--22222222--|
E|------------22222222------------00000000--|
    ........  ........  ........  ........

Verse:(strum faster)
e|-----------------------------------------------|
B|-----------------------------------------------|
G|--Oh Baby-------------77777777-----------------|
D|---Baby-----44444444--77777777--222222-444444--|
A|------------44444444--55555555--222222-444444--|
E|------------22222222------------000000-222222--|
              ........  ........  ...... ......
(continued)
e|-----------------------------------------------|
B|-----------------------------------------------|
G|--44444444------------77777777-----------------|
D|--44444444--44444444--77777777--222222-444444--| 2x
A|--22222222--44444444--55555555--222222-444444--|
E|------------22222222------------000000-222222--|
    ........  ........  ........  ...... ......
[ Tab from: http://www.guitaretab.com/n/new-found-glory/154577.html ]
Chorus:
e|------------------------------------------|
B|------------------------------------------|
G|--44444444------------77777777------------|
D|--44444444--44444444--77777777--22222222--| 
A|--22222222--44444444--55555555--22222222--|
E|------------22222222------------00000000--|
    ........  ........  ........  ........
(continued)
e|----------------------------------------------------|
B|----------------------------------------------------|
G|--44444444------------77777777----------------------|
D|--44444444--44444444--77777777--2222-2-2-2-2-2-2-2--| 
A|--22222222--44444444--55555555--2222-2-2-2-2-2-2-2--|
E|------------22222222------------0000-0-0-0-0-0-0-0--|
    ........  ........  ........  .... . . . . . . .

Adlib:
e|-----------------------------|
B|-----------------------------|
G|--4-----7--9999999999999999--|
D|--4--4--7--9999999999999999--| 3x
A|--2--4--5--7777777777777777--|
E|-----2-----------------------|
    .  .  .  ................

Bridge:
e|--------------------------------|
B|--------------------------------|
G|--4~~-------7~~-----------------|
D|--4~~--4~~--7~~--222222-444444--| 2x
A|--2~~--4~~--5~~--222222-444444--|
E|-------2~~-------000000-222222--|
    .    .    .    ...... ......
(continued)
e|------------------------|
B|------------------------|
G|--4~~-------7~~---------|
D|--4~~--4~~--7~~--2~~~~--| 
A|--2~~--4~~--5~~--2~~~~--|
E|-------2~~-------0~~~~--|
    .    .    .    .....
(continued)
e|-----------------------------|
B|-----------------------------|
G|--4~~-------7~~~~------------|
D|--4~~--4~~--7~~~~--22222222--|
A|--2~~--4~~--5~~~~--22222222--|
E|-------2~~---------00000000--|
    .    .    .      ........

Chorus:
e|------------------------------------------|
B|------------------------------------------|
G|--44444444------------77777777------------|
D|--44444444--44444444--77777777--22222222--| 3x
A|--22222222--44444444--55555555--22222222--|
E|------------22222222------------00000000--|
    ........  ........  ........  ........
(continued)
e|----------------------------------------------------|
B|----------------------------------------------------|
G|--44444444------------77777777----------------------|
D|--44444444--44444444--77777777--2222-2-2-2-2-2-2-2--| 
A|--22222222--44444444--55555555--2222-2-2-2-2-2-2-2--|
E|------------22222222------------0000-0-0-0-0-0-0-0--|
    ........  ........  ........  .... . . . . . . .

enjoy.......
Related for Baby One More Time tab
×
Baby One More Time